Oops, an error
Loading. Please wait.

Self Esteem Bass Tab

version 1
version 1

Whole song

  • More accurate and formatted better. Pretty sure it's 100% correct or very close.
50,336 views 21 this week
11 commentsread comments
1 2 3 4 5
x 26
add to favorites
launch autoscroll
font size
0
reset
guitar tuner
×
Best way to learn
"Self Esteem"
Autoscroll
slow
fast
+/-
esc
set tempo
stop
Play it with a pick and be careful for the Drums-Bass coordination

[Intro]
la la la la la la la la la 

G|----------------------||-----------------------------------||-------------------|
D|----------------------||*---------------------------------*||-------------------|
A|----------------------||*---------8--8--8-----------------*||-------------------|
E|----------------------||----5--5-----------8--8--3--3--3---||-------------------|

[Verse]
Bass only at first then the guitar joins the party

G|-||---------------------------------------------------||------------------------|
D|-||*-------------------------------------------------*||------------------------|
A|-||*--------------------------3--3--3--3-------------*||------------------------|
E|-||---5--5--5--5--1--1---1--1h------------3--3--3--3h-||------------------------|

the "oh yeah" part is play the as the intro

G|-------------------||--------------------------------------||-------------------|
D|-------------------||*------------------------------------*||-------------------|
A|-------------------||*---------8--8--8--------------------*||-------------------|
E|-------------------||---5---5-----------8--8--8--3--3--3---||-------------------|

The chorus is played with rhythm as the intro

G|-||--------------------------------------------------------------------||-------|
D|-||*------------------------------------------------------------------*||-------|
A|-||*--5--5--1--1--1---------3--3--5--5--1--1--1--------3--3--3--3--3--*||-------|
E|-||------------------1---1-----------------------1--1------------------||-------|

************************************

| *  repeat
| h  Hammer-on

************************************
Suggest correction
comments
print report bad tab
11 comments total. Showing first comments.
-1 reply
seekdestroy83 90 Jan 22, 2006 11:03 AM

verse is not correct

-2 reply
Sumlover41 52 May 02, 2006 10:34 AM

Intro:
G|------------------------------------|
D|------------------------------------|
A|-----8-8-8-8-8-8--------------------|
E|-5-5--------------8--8-3-3-3-3-3-3--|

+1 reply
Zachy Boy 279 Nov 24, 2006 09:31 AM

the tab you made is played waaaay to low on the bass, the verse is this:

G|-22222--------55555-----
D|--------3333--------5555
A|------------------------
E|------------------------

guest
You may want to rate the tab now too:
select rating
Wanna post a correction for this tab? Suggest correction