Oops, an error
Loading. Please wait.
We have an official Self Esteem tab made by UG professional guitarists. Check out the tab »
×

Self Esteem bass

version 2
version 2

Whole song

  • More accurate and formatted better. Pretty sure it's 100% correct or very close.
132,084 views 135 this week
18 commentsread comments
1 2 3 4 5
x 59
add to favorites
×
Save as Personal and add changes to this tab that will be seen only by you. Learn more ›
×
You can save this tab as Personal to edit and correct it or add notes. All changes will be seen only by you. Learn more »
launch autoscroll
font size
0
reset
guitar tuner
backing track
0:00
0:00
edit
Autoscroll
slow
fast
+/-
esc
set tempo
stop
Author
++++++++++++++++++++++++++++++
| The Offspring- Self Esteem |
++++++++++++++++++++++++++++++

Ok, this is the way I play it

Tuning: EADG

[Intro]
"La la..."
1.
G|----------------------------------------------------|
D|---------3-3-----------------------3-3--------------|
A|-0-0-00-------3-3-33-------0-0-00-------3-3-33------|
E|----------------------3-3-----------------------3-3-|

2.
G|-------------------------------|
D|-------------------------------|
A|-------------------------------|
E|-1~-1-1-1-1-1-1-1-1-1-1---3-33-|

[Verse]
3.
G|--2222---------5555--00000--2222---------5555--0~-0~-|
D|--------33333---------------------33333--------------|
A|-0------------3------------0------------3------------|
E|-----------------------------------------------------|

"I rode her off..."
4.
G|--2222---------5555--00000--2222---------5555--00000-|
D|--------33333---------------------33333--------------|
A|-0------------3------------0------------3------------|
E|-----------------------------------------------------|

"But she came over..."
5.
G|--2222---------5555--00000--2222---------5555--0~-0~-|
D|--------33333---------------------33333--------------|
A|-0------------3------------0------------3------------|
E|-----------------------------------------------------|

"Now I know Im being used..."
6.
G|--2222---------5555--00000--2222---------5555--00000-|
D|--------33333---------------------33333--------------|
A|-0------------3------------0------------3------------|
E|-----------------------------------------------------|

"I know she's playing with me..."
7.
G|--2222---------5555--00000--2222---------5555--5~-0~-|
D|--------33333---------------------33333--------------|
A|-0------------3------------0------------3------------|
E|-----------------------------------------------------|

[Pre-Chorus]
"Oh Yeah..."
8.
G|----------------------------------------------------|
D|---------3-3-----------------------3-3--------------|
A|-0-0-00-------3-3-33-------0-0-00-------3-3-33------|--x2
E|----------------------3-3-----------------------3-3-|

[Verse]
"We make plans..."
9.
G|--2222---------5555--00000--2222---------5555--00000-|
D|--------33333---------------------33333--------------|
A|-0------------3------------0------------3------------|
E|-----------------------------------------------------|

"All this rejection's..."
10.
G|--2222---------5555--00000--2222---------5555--5~-0~-|
D|--------33333---------------------33333--------------|
A|-0------------3------------0------------3------------|
E|-----------------------------------------------------|

[Pre-Chorus]
"Oh Yeah..."
11.
G|----------------------------------------------------|
D|---------3-3-----------------------3-3--------------|
A|-0-0-00-------3-3-33-------0-0-00-------3-3-33------|--x2
E|----------------------3-3-----------------------3-3-|

[Chorus]
"When she saying..."    (1, not 11)
12.
G|-------------------------------------------------------|
D|-0-0-00--------------------0-0-00----------------------|
A|---------1-1----------3-3----------1-1---------3333333-|--x3
E|--------------1-1-11--------------------1-1-11---------|

"The more you suffer..."
13.
G|--------------------------------------------------------|
D|-0-0-00-------------------------------------------------|
A|---------1-1--3-3-33------------------------------------|
E|----------------------3-3--1~-1-1-1-1-1-1-1-1-1-1--3-33-|

[Verse]
14.
G|--2222---------5555--00000--2222---------5555--0~-0~-|
D|--------33333---------------------33333--------------|
A|-0------------3------------0------------3------------|
E|-----------------------------------------------------|

"Now Ill relate..."
15.
G|--2222---------5555--00000--2222---------5555--00000-|
D|--------33333---------------------33333--------------|
A|-0------------3------------0------------3------------|
E|-----------------------------------------------------|

"Late at night..."
16.
G|--2222---------5555--00000--2222---------5555--0~-0~-|
D|--------33333---------------------33333--------------|
A|-0------------3------------0------------3------------|
E|-----------------------------------------------------|

"Now I know I should say no but..."
17.
G|--2222---------5555--00000--2222---------5555--00000-|
D|--------33333---------------------33333--------------|
A|-0------------3------------0------------3------------|
E|-----------------------------------------------------|

"I may be dumb..."
18.
G|--2222---------5555--00000--2222---------5555--5~-0~-|
D|--------33333---------------------33333--------------|
A|-0------------3------------0------------3------------|
E|-----------------------------------------------------|
[Pre-Chorus]

"Oh Yeah..."
19.
G|----------------------------------------------------|
D|---------3-3-----------------------3-3--------------|
A|-0-0-00-------3-3-33-------0-0-00-------3-3-33------|--x2
E|----------------------3-3-----------------------3-3-|

[Chorus]
"When she saying..."    (1, not 11)
20.
G|-------------------------------------------------------|
D|-0-0-00--------------------0-0-00----------------------|
A|---------1-1----------3-3----------1-1---------3333333-|--x3
E|--------------1-1-11--------------------1-1-11---------|

"The more you suffer..."
21.
G|--------------------------------------------------------|
D|-0-0-00-------------------------------------------------|
A|---------1-1--3-3-33------------------------------------|
E|----------------------3-3--1~-1-1-1-1-1-1-1-1-1-1--3-33-|

22.
G|------------------------------------------------|
D|------------------------------------------------|
A|-0x---------------------------------------------|
E|------------------------------------------------|

************************************

| x  Dead note
| ~  Vibrato

************************************

Lyrics:

I rode her off for the tenth time today
And practiced all the things I would say
But she came over, I lost my nerve
I took her back and made her dessert

Now I know Im being used
Thats okay man cause I like the abuse
I know shes playing with me
Thats okay cause I got no self esteem

Oh yeah

We make plans to go out at night
I wait till 2 then I turn out the light
All this rejection's got me so low
She keeps it up I just might tell her so

Oh yeah

When she saying all that she wants only me
Then I wonder why she sleeps with my friends
When she saying all that Im like a disease
Then I wonder how much more I could spend
Well I guess, I should stick up for myself
But I really think its better this way
The more you suffer, the more it shows you really care
Right? Yeah

Now Ill relate this little bit
It happens more than Id like to admit
Late at night she knocks on my door
She's drunk again and looking to score

Now I know I should say no but,
Its kinda hard when shes ready to go
I may be dumb but Im not a dweeb
Im just a sucker with no self esteem

+++++++++++++++++++++++++++++++++
| RaiLeff                       |
| Underground__Dora@Hotmail.Com |
+++++++++++++++++++++++++++++++++

            
            
Suggest correction
Creating personal tab
Creating personal tab
You can edit any tab online and save it as your Personal.

You can edit, replace or remove any tab part or add personal notes – all changes will be seen only by you.

Personal tabs can be accessed anytime from any device, even offline.
Learn more »
comments
print report bad tab
18 comments total. Showing first comments.
0 reply
BreAkdOwn396 83 Jun 12, 2007 08:25 AM

the closest tab so far

0 reply
jason danger 31 Jun 19, 2007 03:27 PM

pretty accurate

+2 reply
angel-of-blink 10 Aug 23, 2007 10:14 AM

verse has to be:

G|--------------------------------------------------------------------
D|----------------------------------10-10-10-10---------------------
A|---12-12-12-12-12----8-8-8-8-8-8-------------------10-10-10-10-10---
E|--------------------------------------------------------------------

guest
You may want to rate the tab now too:
select rating
Wanna post a correction for this tab? Suggest correction