Oops, an error
Loading. Please wait.

Sin City bass

560 views 1 this week
no commentswrite comment
1 2 3 4 5
3 more votes to show rating
add to favorites
×
Save as Personal and add changes to this tab that will be seen only by you. Learn more ›
×
You can save this tab as Personal to edit and correct it or add notes. All changes will be seen only by you. Learn more »
launch autoscroll
font size
0
reset
guitar tuner
edit
Autoscroll
slow
fast
+/-
esc
set tempo
stop
Author
+++++++++++++++++++++++++++
| The Offspring- Sin City |
+++++++++++++++++++++++++++


"Ladders and snakes..."


A great AC/DC song covered by a great band


Tuning: EADG



Intro
1.
G|-----------------------|
D|-----------------------|
A|---0-2-5-0-2-----------|
E|-3-----------0~--------|

2.
G|-----------------------------------------------------------------------------|
D|-----------------------------------------------------------------------------|
A|-----2~--5~--0~--------2~--5~--0~--------2~--5~--0~--------2~--5~--0~--------|
E|-0~----------------0~----------------0~----------------0~--------------0-3~--|

3.
G|------------------------------------------------------------------------------------|
D|------------------------------------------------------------------------------------|
A|---7--2--5--0---------7--2--5--0---------7--2--5--0---------7--2--55555555-55555555-|
E|-00-00-00-00-00-3~--00-00-00-00-00-3~--00-00-00-00-00-3~--00-00-00------------------|

4.
G|-------------------|
D|-------------------|
A|-55555555-55555555-|
E|-------------------|

Verse
"Diamonds and dust..."
5.
G|-----------------------------------------------------------------------------|
D|-----------------------------------------------------------------------------|
A|-----------------------------------------------------------------------------|--x2
E|-00000000000000-3~--00000000000000-3~--00000000000000-3~--00000000000000-3~--|

Pre-Chorus
"I got a burning feeling..."
6.
G|-------------------------------------------------------------------------|
D|-------------------------------------------------------------------------|
A|-00000000-00000000-00000000-00000000-22222222-22222222-22222222-22222222-|
E|-------------------------------------------------------------------------|

Chorus
"Im going in to sin city..."
7.
G|-----------------------------------------------------------------------------|
D|-----------------------------------------------------------------------------|
A|---7--2--5--0---------7--2--5--0---------7--2--5--0---------7--2--5--0-------|
E|-00-00-00-00-00-3~--00-00-00-00-00-3~--00-00-00-00-00-3~--00-00-00-00-00-3~--|

8.
G|------------------------------------------------------------------------------------|
D|------------------------------------------------------------------------------------|
A|---7--2--5--0---------7--2--5--0---------7--2--5--0---------7--2--55555555-55555555-|
E|-00-00-00-00-00-3~--00-00-00-00-00-3~--00-00-00-00-00-3~--00-00-00------------------|

9.
G|-------------------|
D|-------------------|
A|-55555555-55555555-|
E|-------------------|

Outro
10.
G|-----------------------------------------------------------------------------|
D|-----------------------------------------------------------------------------|
A|-----------------------------------------------------------------------------|
E|-00000000000000-3~--00000000000000-3~--00000000000000-3~--00000000000000-3~--|

11.
G|----------------------------------------------------------------------------------|
D|----------------------------------------------------------------------------------|
A|----------------------------------------------------------------55555555-55555555-|
E|-00000000000000-3~--00000000000000-3~--00000000000000-3~--000000------------------|

12.
G|-------------------|
D|-------------------|
A|-55555555-55555555-|
E|-------------------|

Bridge
13.
G|-------------------------------------------------|
D|-------------------------------------------------|
A|----7x--2x--5--0~-----------7x--2x--5--0~--------|--x6
E|-0~----------------0-33~-0~----------------0-33~-|

"Fingers freddy..."
14.
G|-----------------------------------------------------------------------------|
D|-----------------------------------------------------------------------------|
A|-----2~--5~--0~--------2~--5~--0~--------2~--5~--0~--------2~--5~--0~--------|
E|-0~----------------0~----------------0~----------------0~--------------0-3~--|

Pre-Chorus
"So spin that wheel, cut that pack..."
15.
G|-------------------------------------------------------------------------|
D|-------------------------------------------------------------------------|
A|-00000000-00000000-00000000-00000000-22222222-22222222-22222222-22222222-|
E|-------------------------------------------------------------------------|

Chorus
"Im going in to sin city..."
16.
G|-----------------------------------------------------------------------------|
D|-----------------------------------------------------------------------------|
A|---7--2--5--0---------7--2--5--0---------7--2--5--0---------7--2--5--0-------|
E|-00-00-00-00-00-3~--00-00-00-00-00-3~--00-00-00-00-00-3~--00-00-00-00-00-3~--|

17.
G|------------------------------------------------------------------------------------|
D|------------------------------------------------------------------------------------|
A|---7--2--5--0---------7--2--5--0---------7--2--5--0---------7--2--55555555-55555555-|
E|-00-00-00-00-00-3~--00-00-00-00-00-3~--00-00-00-00-00-3~--00-00-00------------------|

18.
G|-------------------|
D|-------------------|
A|-55555555-5~-------|
E|-------------------|

Outro
19.
G|------------------------------------------|
D|------------------------------------------|
A|-----0~--2~--5~--0~--2~-------------------|
E|-3~----------------------0~---------------|


Please rate thanks!!


Lyrics:


Diamonds and dust
(home at last)
Poor man last, rich man first 
Lamborghinis, caviar
Dry martinis, Shangri-la
I got a burning feeling
Deep inside of me
It's yearning
But I'm going to set it free

I'm going in to sin city
I'm gonna win in sin city
Where the lights are bright
Do the town tonight
I'm gonna win in sin city

Ladders and snakes
Ladders give, snakes take
Rich man, poor man, beggarman, thief
Ain't got a hope in hell, that's my belief

Fingers Freddy, Diamond Jim
They're getting ready, 
Look out I'm coming in 
So spin that wheel, cut that pack
And roll those loaded dice
Bring on the dancing girls
And put the champaign on ice



+++++++++++++++++++++++++++++++++
| Raileff                       |
| Underground__Dora@Hotmail.Com |
+++++++++++++++++++++++++++++++++

            
            
Suggest correction
Creating personal tab
Creating personal tab
You can edit any tab online and save it as your Personal.

You can edit, replace or remove any tab part or add personal notes – all changes will be seen only by you.

Personal tabs can be accessed anytime from any device, even offline.
Learn more »
Give kudos to tab author, rate the tab!
1 2 3 4 5
comments
print report bad tab
guest
You may want to rate the tab now too:
select rating
Wanna post a correction for this tab? Suggest correction