Oops, an error
Loading. Please wait.
We have an official Slim Pickens Does The Right Thing And Rides The Bomb To Hell tab made by UG professional guitarists. Check out the tab »
×

Slim Pickens Does The Right Thing And Rides The Bomb To Hell bass

2,178 views 3 this week
1 commentread comment
1 2 3 4 5
x 5
add to favorites
×
Save as Personal and add changes to this tab that will be seen only by you. Learn more ›
×
You can save this tab as Personal to edit and correct it or add notes. All changes will be seen only by you. Learn more »
launch autoscroll
font size
0
reset
guitar tuner
backing track
0:00
0:00
edit
Autoscroll
slow
fast
+/-
esc
set tempo
stop
LIM PICKENS DOES THE RIGHT THING AND RIDES THE BOMB TO HELL (Bassline)
As recorded by The Offspring
(From the 2012 Album DAYS GO BY)

Transcribed by Whoabot

Words and Music by The Offspring
Arranged by The Offspring


Gtr I (D A D G) - 'Untitled'

 Intro
  Q=149
 2/4     4/4
  Gtr I
  H       E E E E E E E E   E E E E E E E E
|------||-----------------|-----------------|
|------||-----------------|-----------------|
|------||-5-5-5-5-1-1-1---|---------3-3-3-3-|
|------||---------------3-|-3-3-3-3---------|


  E E E E E E E E   E E E E E E E E
|-----------------|------------------||
|-----------------|------------------||
|-5-5-5-5-1-1-1---|---------3-3-3-3--||
|---------------3-|-3-3-3-3----------||


   Verse
    E E E E E E E E   E E E E E E E E   E E E E E E E E
||------------------|-----------------|-----------------|
||o-----------------|-3-3-3-2---------|-----------------|
||o-5-5-5-5-1-1-1-1-|---------3-3-3-3-|-5-5-5-5-1-1-1-1-|
||------------------|-----------------|-----------------|


 1.                  2.
  E E E E E E E E     E E E E E Q.
|------------------||-----------------||
|-3-3-3-2---------o||-3-3-3-2---------||
|---------3-3-3-3-o||---------3-------||
|------------------||-----------------||


 horus
  E E E E E E E E   E E E E E E E E     E E E E E E E E   E E E E E E E E
|-----------------|-----------------||------------------|------------------||
|-----------------|-----------------||o-----------------|-----------------o||
|-------0-1-1-1---|---------3-3-3-3-||o-------0-1-1-1---|---------3-3-3-3-o||
|-0-0-0---------3-|-3-3-3-3---------||--0-0-0---------3-|-3-3-3-3----------||


  Q  E E E E E E   E  a  E E E E E E E
|----------------|---------------------|
|----------------|---------------------|
|-1--1-1-1-1-1-1-|-1-(1)s3-3-3-3-3-3-3-|
|----------------|---------------------|


  E E E E E E E E   E  a  E E E E E E E
|-----------------|-----------------------|
|-----------------|-----------------------|
|-1-1-1-1-1-1-1-1-|-1-(1)s3-3-3-3-3-3-3---|
|-----------------|-----------------------|


  Q  E E E E E E   E  a  E E E E E E E   Q  E E Q  E E   E E E E E Q.
|----------------|---------------------|---------------|----------------||
|----------------|---------------------|---------------|----------------||
|-1--1-1-1-1-1-1-|-1-(1)s3-3-3-3-3-3-3-|-5--5-3-5--5-3-|-5-5-5-3-5------||
|----------------|---------------------|---------------|----------------||


   Verse
    E E E E E E E E   E E E E E E E E   E E E E E E E E   E E E E E E E E
||------------------|-----------------|-----------------|-------------------||
||o---------------3-|-3-3-3-3---------|---------------3-|-3-3-3-3----------o||
||o-------0-1-1-1---|---------3-3-3-3-|-------0-1-1-1---|---------3-3-3-3--o||
||--0-0-0-----------|-----------------|-0-0-0-----------|-------------------||


    E E E E E E E E   E E E E E E E E   E E E E E E E E   E E E E E E E E
||------------------|-----------------|-----------------|-------------------||
||o-----------------|-3-3-3-2---------|-----------------|-3-3-3-2----------o||
||o-5-5-5-5-1-1-1-1-|---------3-3-3-3-|-5-5-5-5-1-1-1-1-|---------3-3-3-3--o||
||------------------|-----------------|-----------------|-------------------||


 Pre-Chorus
  W          Q  Q  Q  Q    E E E E E E E E   E E E E E Q.
|----------|-------------|-----------------|----------------||
|----------|-------------|-----------------|----------------||
|----------|-------------|-1-1-1-1-1-1-1-3-|-3-3-3-3-3------||
|-5--------|-5--5--5--5--|-----------------|----------------||


 Chorus
  E E E E E E E E   E E E E E E E E     E E E E E E E E   E E E E E E E E
|-----------------|-----------------||------------------|------------------||
|-----------------|-----------------||o-----------------|-----------------o||
|-------0-1-1-1---|---------3-3-3-3-||o-------0-1-1-1---|---------3-3-3-3-o||
|-0-0-0---------3-|-3-3-3-3---------||--0-0-0---------3-|-3-3-3-3----------||


  Q  E E E E E E   E  a  E E E E E E E
|----------------|---------------------|
|----------------|---------------------|
|-1--1-1-1-1-1-1-|-1-(1)s3-3-3-3-3-3-3-|
|----------------|---------------------|


  E E E E E E E E   E  a  E E E E E E E
|-----------------|-----------------------|
|-----------------|-----------------------|
|-1-1-1-1-1-1-1-1-|-1-(1)s3-3-3-3-3-3-3---|
|-----------------|-----------------------|


  Q  E E E E E E   E  a  E E E E E E E   Q  E E Q  E E   E E E E E Q.
|----------------|---------------------|---------------|----------------||
|----------------|---------------------|---------------|----------------||
|-1--1-1-1-1-1-1-|-1-(1)s3-3-3-3-3-3-3-|-5--5-3-5--5-3-|-5-5-5-3-5------||
|----------------|---------------------|---------------|----------------||


   uitar Solo
    E E E E Q  E E   E E E E Q  E E   E E E E Q  E E   E E E E Q  E E
||-----------------|----------------|----------------|------------------||
||o----------------|-3-3-3-2--------|----------------|-3-3-3-2---------o||
||o-5-5-5-3-1--1-3-|---------3--3-3-|-5-5-5-3-1--1-3-|---------3--3-3--o||
||-----------------|----------------|----------------|------------------||


 Pre-Chorus
  W          Q  Q  Q  Q    E E E E E E E E   E E E E E Q.
|----------|-------------|-----------------|----------------||
|----------|-------------|-----------------|----------------||
|----------|-------------|-1-1-1-1-1-1-1-3-|-3-3-3-3-3------||
|-5--------|-5--5--5--5--|-----------------|----------------||


   Out-Chorus
    E E E E E E E E   E E E E E E E E   E E E E E E E E   E E E E E E E E   3x
||------------------|-----------------|-----------------|-------------------||
||o---------------3-|-3-3-3-3---------|---------------3-|-3-3-3-3----------o||
||o-------0-1-1-1---|---------3-3-3-3-|-5-5-5-0-1-1-1---|---------3-3-3-3--o||
||--0-0-0-----------|-----------------|-----------------|-------------------||


  Q  E E E E E E   E  a  E E E E E E E
|----------------|---------------------|
|----------------|---------------------|
|-1--1-1-1-1-1-1-|-1-(1)s3-3-3-3-3-3-3-|
|----------------|---------------------|


  E E E E E E E E   E  a  E E E E E E E
|-----------------|-----------------------|
|-----------------|-----------------------|
|-1-1-1-1-1-1-1-1-|-1-(1)s3-3-3-3-3-3-3---|
|-----------------|-----------------------|


  E E E E E E E E   E  a  E E E E E E E   E E E E E E E E   E E E E E E E E
|-----------------|---------------------|-----------------|-----------------|
|-----------------|---------------------|-----------------|-----------------|
|-1-1-1-1-1-1-1-1-|-1-(1)s3-3-3-3-3-3-3-|-5-5-5-5-5-5---3-|-5-5-5-5-5-5---3-|
|-----------------|---------------------|-----------------|-----------------|


  E E E E E E E E   E E E E E Q.     W          W
|-----------------|----------------|----------|------*|
|-----------------|----------------|----------|------*|
|-5-5-5-5-5-5---3-|-5-5-5-3-5------|----------|------*|
|-----------------|----------------|----------|------*|

            
            
Suggest correction
Creating personal tab
Creating personal tab
You can edit any tab online and save it as your Personal.

You can edit, replace or remove any tab part or add personal notes – all changes will be seen only by you.

Personal tabs can be accessed anytime from any device, even offline.
Learn more »
comments
print report bad tab
1 comment total.
0 reply
Whoabot 7,154 Jan 09, 2017 04:20 PM

Weird how people will downrate this, but not explain why. Hmmmm

guest
You may want to rate the tab now too:
select rating
Wanna post a correction for this tab? Suggest correction