Oops, an error
Loading. Please wait.

Slim Pickens Does The Right Thing And Rides The Bomb To Hell Tab

version 1
version 1

Whole song

Interactive

17,088 views 46 this week
3 commentsread comments
1 2 3 4 5
excellent!
x 19
add to favorites
launch autoscroll
font size
0
reset
how to read this tab
guitar tuner
Tab Pro tools
  • play this tab
  • loop segment
  • change instrument
  • show fretboard
  • metronome
×
Best way to learn
"Slim Pickens Does The Right Thing And Rides The Bomb To Hell"
Autoscroll
slow
fast
+/-
esc
set tempo
stop
Contributor
Difficulty
novice
-------------------------------------------------------------------------------
Slim Pickens Does The Right Thing And Rides The Bomb To Hell - The Offspring
-------------------------------------------------------------------------------
Tabbed by: Brian Wells  

Tuning: Standard

  Intro 
e|---------------------------------------|
B|---------------------------------------|
G|7-7-7-7---------10-10-10-10------------|
D|7-7-7-7-8-8-8-8-10-10-10-10-10-10-10-10| X2
A|5-5-5-5-8-8-8-8--8--8--8--8-10-10-10-10|
E|--------6-6-6-6--------------8--8--8--8|

  Verse (Palm Muted)
e|---------------------------------------|
B|---------------------------------------|
G|7-7-7-7---------10-10-10-10------------|
D|7-7-7-7-8-8-8-8-10-10-10-10-10-10-10-10| X4
A|5-5-5-5-8-8-8-8--8--8--8--8-10-10-10-10|
E|--------6-6-6-6--------------8--8--8--8|

  Chorus
e|---------------------------------------|    e|-|
B|---------------------------------------|    B|-|
G|7-7-7-7---------10-10-10-10------------|    G|-|
D|7-7-7-7-8-8-8-8-10-10-10-10-10-10-10-10| X3 D|8|
A|5-5-5-5-8-8-8-8--8--8--8--8-10-10-10-10|    A|8|
E|--------6-6-6-6--------------8--8--8--8|    E|6|

e|---------------------------------------| 
B|---------------------------------------|
G|---------------------------------------|
D|8-8-8-8-8-8-8-8/10-10-10-10-10-10-10-10| X2
A|8-8-8-8-8-8-8-8/10-10-10-10-10-10-10-10|
E|6-6-6-6-6-6-6-6/-8--8--8--8--8--8--8--8|
  x x x x x x x x  x  x  x  x  x  x  x  x
e|----------------------------------------| 
B|----------------------------------------|
G|----------------------------------------|
D|8-8-8-8-8-8-8-8/-10-10-10-10-10-10-10-10|
A|8-8-8-8-8-8-8-8/-10-10-10-10-10-10-10-10|
E|6-6-6-6-6-6-6-6/--8--8--8--8--8--8--8--8|
  x x x x x x x 

e|-------------------------|
B|-------------------------|
G|7-7-5-5-7-7-5-5-7-7-5-5-7|
D|7-7-5-5-7-7-5-5-7-7-5-5-7|
A|5-5-3-3-5-5-3-3-5-5-3-3-5|
E|-------------------------|

  Verse
e|---------------------------------------|
B|---------------------------------------|
G|7-7-7-7---------10-10-10-10------------|
D|7-7-7-7-8-8-8-8-10-10-10-10-10-10-10-10| X4
A|5-5-5-5-8-8-8-8--8--8--8--8-10-10-10-10|
E|--------6-6-6-6--------------8--8--8--8|

e|---------------------------------------|
B|---------------------------------------|
G|7-7-7-7---------10-10-10-10------------|
D|7-7-7-7-8-8-8-8-10-10-10-10-10-10-10-10| X4
A|5-5-5-5-8-8-8-8--8--8--8--8-10-10-10-10|
E|--------6-6-6-6--------------8--8--8--8|
  x x x x x x x x  x  x  x  x  x  x  x  x


  Bridge
e|--------------------------------------------------------------------|
B|--------------------------------------------------------------------|
G|--------------------------------------------------------------------|
D|-5-5-5-5-5-5-5-5-5-5-5-5-5-5-5-5-8-8-8-8-8-8-8-8-10-10-10-10-x-x-x-x|
A|-5-5-5-5-5-5-5-5-5-5-5-5-5-5-5-5-8-8-8-8-8-8-8-8-10-10-10-10-x-x-x-x|
E|-3-3-3-3-3-3-3-3-3-3-3-3-3-3-3-3-6-6-6-6-6-6-6-6--8--8--8--8-x-x-x-x|
  
Chorus
e|---------------------------------------|    e|-|
B|---------------------------------------|    B|-|
G|7-7-7-7---------10-10-10-10------------|    G|-|
D|7-7-7-7-8-8-8-8-10-10-10-10-10-10-10-10| X3 D|8|
A|5-5-5-5-8-8-8-8--8--8--8--8-10-10-10-10|    A|8|
E|--------6-6-6-6--------------8--8--8--8|    E|6|

e|---------------------------------------| 
B|---------------------------------------|
G|---------------------------------------|
D|8-8-8-8-8-8-8-8/10-10-10-10-10-10-10-10|X2
A|8-8-8-8-8-8-8-8/10-10-10-10-10-10-10-10|
E|6-6-6-6-6-6-6-6/-8--8--8--8--8--8--8--8|
  x x x x x x x x  x  x  x  x  x  x  x  x

e|----------------------------------------| 
B|----------------------------------------|
G|----------------------------------------|
D|8-8-8-8-8-8-8-8/-10-10-10-10-10-10-10-10|
A|8-8-8-8-8-8-8-8/-10-10-10-10-10-10-10-10|
E|6-6-6-6-6-6-6-6/--8--8--8--8--8--8--8--8|
  x x x x x x x 

e|-------------------------|
B|-------------------------|
G|7-7-5-5-7-7-5-5-7-7-5-5-7|
D|7-7-5-5-7-7-5-5-7-7-5-5-7|
A|5-5-3-3-5-5-3-3-5-5-3-3-5|
E|-------------------------|

  Guitar Solo
  Guitar 1
e|---------------------------------------------------------------------------|
B|---------------------------------------------------------------------------|
G|-7--7-5-7--7-9-10--10-12-9-9/10\9-7-5-7--5-7-9/10\9-7-5-7------------------|
D|---------------------------------------------------------------------------|x2
A|---------------------------------------------------------------------------|
E|---------------------------------------------------------------------------|
Guitar 2
e|---------------------------------------|
B|---------------------------------------|
G|7-7-7-7---------10-10-10-10------------|
D|7-7-7-7-8-8-8-8-10-10-10-10-10-10-10-10| X4
A|5-5-5-5-8-8-8-8--8--8--8--8-10-10-10-10|
E|--------6-6-6-6--------------8--8--8--8|

e|--------------------------------------------------------------------|
B|--------------------------------------------------------------------|
G|--------------------------------------------------------------------|
D|-5-5-5-5-5-5-5-5-5-5-5-5-5-5-5-5-8-8-8-8-8-8-8-8-10-10-10-10-x-x-x-x|
A|-5-5-5-5-5-5-5-5-5-5-5-5-5-5-5-5-8-8-8-8-8-8-8-8-10-10-10-10-x-x-x-x|
E|-3-3-3-3-3-3-3-3-3-3-3-3-3-3-3-3-6-6-6-6-6-6-6-6--8--8--8--8-x-x-x-x|

Chorus
e|---------------------------------------|   e|-|
B|---------------------------------------|   B|-|
G|7-7-7-7---------10-10-10-10------------|   G|-|
D|7-7-7-7-8-8-8-8-10-10-10-10-10-10-10-10|X6 D|8|
A|5-5-5-5-8-8-8-8--8--8--8--8-10-10-10-10|   A|8|
E|--------6-6-6-6--------------8--8--8--8|   E|6|

e|---------------------------------------| 
B|---------------------------------------|
G|---------------------------------------|
D|8-8-8-8-8-8-8-8/10-10-10-10-10-10-10-10| X2
A|8-8-8-8-8-8-8-8/10-10-10-10-10-10-10-10|
E|6-6-6-6-6-6-6-6/-8--8--8--8--8--8--8--8|
  x x x x x x x x  x  x  x  x  x  x  x  x

e|----------------------------------------| 
B|----------------------------------------|
G|----------------------------------------|
D|8-8-8-8-8-8-8-8/-10-10-10-10-10-10-10-10|
A|8-8-8-8-8-8-8-8/-10-10-10-10-10-10-10-10|
E|6-6-6-6-6-6-6-6/--8--8--8--8--8--8--8--8|
  x x x x x x x 

  Outro
e|---------------------------------------------------------|
B|---------------------------------------------------------|
G|7-7-7-7-7-7-7-5-7-7-7-7-7-7-7-5-7-7-7-7-7-7-7-5-7-7-7-7-7|
D|7-7-7-7-7-7-7-5-7-7-7-7-7-7-7-5-7-7-7-7-7-7-7-5-7-7-7-7-7|
A|5-5-5-5-5-5-5-3-5-5-5-5-5-5-5-3-5-5-5-5-5-5-5-3-5-5-5-5-5|
E|---------------------------------------------------------|

| /  slide up
| \  slide down
| h  hammer-on
| p  pull-off
| ~  vibrato
| +  harmonic
| x  Mute note
===============================================================================
comments
print report bad tab
3 comments total.
0 reply
dterrell68 wrote on July 3 2012, 01:22 pm

great first tab for this song. only correction i've seen so far: the outro, which also needs to be included as the post chorus (used during the shouting "dance ****er dance let the mother****er burn") slides down to 3-5-5 more often than you say. so it should be:

e|-------------------------
B|------------------------- x1 during post-chorus
G|-7-7-5-7-7-5-7-7-5-7---- x2 during outro
D|-7-7-5-7-7-5-7-7-5-7----
A|-5-5-3-5-5-3-5-5-5-3----
E|-------------------------
D D U D strum pattern

great job though.

+1 reply
dterrell68 wrote on July 3 2012, 01:27 pm

actually, your outro is fine. but the above pattern is correct for post-chorus

+1 reply
raider00771 wrote on July 3 2012, 07:05 pm

im pretty sure the outro is right but thats up to you. i agree with the post chorus. ive been meaning to change it but havent gotten around to it yet

I want to post or [tab]
guest
You may want to rate the tab now too:
select rating
Please do not post tabs as comments. Select "correction" instead!