Oops, an error
Loading. Please wait.

Slim Pickens Does The Right Thing And Rides The Bomb To Hell Bass Tab

version 2
version 2

Whole song

Interactive

1,420 views 6 this week
no commentswrite comment
1 2 3 4 5
excellent!
x 9
add to favorites
launch autoscroll
font size
0
reset
guitar tuner
Tab Pro tools
  • play this tab
  • loop segment
  • change instrument
  • show fretboard
  • metronome
×
Best way to learn
"Slim Pickens Does The Right Thing And Rides The Bomb To Hell"
Autoscroll
slow
fast
+/-
esc
set tempo
stop
Contributor
Difficulty
novice
-------------------------------------------------------------------------------
Slim Pickens Does The Right Thing And Rides The Bomb To Hell - The Offspring
-------------------------------------------------------------------------------
Tabbed by: Brian Wells  

Tuning: Standard

  Intro/ Verse
G|--------------------------------|
D|--------------------------------|
A|5-5-5-5---------8-8-8-8---------|X6
E|--------6-6-6-6---------8-8-8-8-|

  Chorus
G|--------------------------------|
D|--------------------------------|
A|5-5-5-5---------8-8-8-8---------|X3 
E|--------6-6-6-6---------8-8-8-8-|

G|--------------------------------|
D|--------------------------------|
A|--------------------------------|X3
E|6-6-6-6-6-6-6-6/8-8-8-8-8-8-8-8-|

G|--------------------------------|
D|--------------------------------|
A|--------------------------------|
E|10-10-8-8-10-10-8-8-10-10-8-8-10|

  Verse
G|--------------------------------|
D|--------------------------------|
A|5-5-5-5---------8-8-8-8---------|X8
E|--------6-6-6-6---------8-8-8-8-|

  Bridge
G|---------------------------------|
D|---------------------------------|
A|---------------------------------|
E|3---3--3--6-6-6-6-6-6-6-6-8-8-8-8|

  Chorus
G|--------------------------------|
D|--------------------------------|
A|5-5-5-5---------8-8-8-8---------|X3 
E|--------6-6-6-6---------8-8-8-8-|

G|--------------------------------|
D|--------------------------------|
A|--------------------------------|X3
E|6-6-6-6-6-6-6-6/8-8-8-8-8-8-8-8-|

G|--------------------------------|
D|--------------------------------|
A|--------------------------------|
E|10-10-8-8-10-10-8-8-10-10-8-8-10|

  Guitar Solo
G|--------------------------------|
D|--------------------------------|
A|5-5-5-5---------8-8-8-8---------|X4
E|--------6-6-6-6---------8-8-8-8-|

G|---------------------------------|
D|---------------------------------|
A|---------------------------------|
E|3---3--3--6-6-6-6-6-6-6-6-8-8-8-8|

Chorus
G|--------------------------------|
D|--------------------------------|
A|5-5-5-5---------8-8-8-8---------|X6 
E|--------6-6-6-6---------8-8-8-8-|

G|--------------------------------|
D|--------------------------------|
A|--------------------------------|X3
E|6-6-6-6-6-6-6-6/8-8-8-8-8-8-8-8-|

  Outro
G|---------------------------------------------------------|
D|---------------------------------------------------------|
A|5-5-5-5-5-5-5-3-5-5-5-5-5-5-5-3-5-5-5-5-5-5-5-3-5-5-5-5-5|
E|---------------------------------------------------------|

| /  slide up
| \  slide down
| h  hammer-on
| p  pull-off
| ~  vibrato
| +  harmonic
| x  Mute note
===============================================================================
comments
print report bad tab
I want to post or [tab]
guest
You may want to rate the tab now too:
select rating
Please do not post tabs as comments. Select "correction" instead!