Oops, an error
Loading. Please wait.
We have an official Spare Me The Details tab made by UG professional guitarists. Check out the tab »
×
61,472 views 18 this week
11 commentsread comments
1 2 3 4 5
x 36
add to favorites
×
Save as Personal and add changes to this tab that will be seen only by you. Learn more ›
×
You can save this tab as Personal to edit and correct it or add notes. All changes will be seen only by you. Learn more »
launch autoscroll
font size
0
reset
how to read this tab
guitar tuner
edit
Autoscroll
slow
fast
+/-
esc
set tempo
stop
Artist: The Offspring
Title: Spare Me the Details
Album: Splinter
Tabber: danc446 (@yahoo.com)

[Intro]
Rhythm  (CHORUS)
e|------------------------------|
B|------------------------------|
G|----------------8-8-8--6-6-6--|
D|--6-6-6--6-6-6--8-8-8--6-6-6--|
A|--6-6-6--6-6-6--6-6-6--4-4-4--|
E|--4-4-4--4-4-4----------------|

Lead
e|--------8-----6-----4----|
B|----9-----9-----8-----6--|
G|--8---8-----8-----6------|
D|-------------------------|
A|-------------------------|
E|-------------------------|

[Verse]
(One guitar PM, other open)
e|----------------------------------------------------------------------|
B|----------------------------------------------------------------------|
G|-----------------8-8-8-8-6-6-6-6-----------------6-6-6-6-6-8-8-8-8----|
D|-6-6-6-6-6-6-6-6-8-8-8-8-6-6-6-6-6-6-6-6-6-6-6-6-6-6-6-6-6-8-8-8-8----|
A|-6-6-6-6-6-6-6-6-6-6-6-6-4-4-4-4-6-6-6-6-6-6-6-6-4-4-4-4-4-6-6-6-6----|
E|-4-4-4-4-4-4-4-4-----------------4-4-4-4-4-4-4-4----------------------|

e|---------------------------------|
B|---------------------------------|
G|------------------8-8-8--6-6-6---|
D|----6-6-6--6-6-6--8-8-8--6-6-6---|
A|----6-6-6--6-6-6--6-6-6--4-4-4---|
E|----4-4-4--4-4-4-----------------|

[Chorus End]
e|----------------------------|
B|----------------------------|
G|--5-5-5--5-5-5--10-10--8-8--|
D|--6-6-6--6-6-6--10-10--8-8--|
A|--6-6-6--6-6-6---8--8--6-6--|
E|--4-4-4--4-4-4--------------|

[Bridge]
e|---------------------------------------------------------------------------|
B|---------------------------------------------------------------------------|
G|------1010101010101010-----------------8-8-8-8-8-8-8-8-5-5-5-5-5-5-5-5-----|
D|---6--1010101010101010-8-8-8-8-8-8-8-8-8-8-8-8-8-8-8-8-5-5-5-5-5-5-5-5-----|
A|---6---8-8-8-8-8-8-8-8-8-8-8-8-8-8-8-8-6-6-6-6-6-6-6-6-3-3-3-3-3-3-3-3-----|
E|---4-------------------6-6-6-6-6-6-6-6-------------------------------------|

e|----------------------------------------------------------------------|
B|----------------------------------------------------------------------|
G|----1010101010101010-----------------8-8-8-8-8-8-8-8------------------|
D|----1010101010101010-8-8-8-8-8-8-8-8-8-8-8-8-8-8-8-8-6-6-6-6-6-6-6-6--|
A|-----8-8-8-8-8-8-8-8-8-8-8-8-8-8-8-8-6-6-6-6-6-6-6-6-6-6-6-6-6-6-6-6--|
E|---------------------6-6-6-6-6-6-6-6-----------------4-4-4-4-4-4-4-4--|


************************************

| PM  Palm mute

************************************

            
            
Suggest correction
Creating personal tab
Creating personal tab
You can edit any tab online and save it as your Personal.

You can edit, replace or remove any tab part or add personal notes – all changes will be seen only by you.

Personal tabs can be accessed anytime from any device, even offline.
Learn more »
comments
print report bad tab
11 comments total. Showing first comments.
0 reply
Rankles 594 Dec 07, 2003 07:00 PM

Looks good.

0 reply
noodles_wazaman 150 Jan 11, 2004 07:00 PM

Not only did you tab it correctly but you also knew the name of the song!

0 reply
yhprum 10 Jan 07, 2005 07:00 PM

Awsome tab!! Finally we are getting some correct tabs.....

guest
You may want to rate the tab now too:
select rating
Wanna post a correction for this tab? Suggest correction