Oops, an error
Loading. Please wait.

Special Delivery Bass Tab

version 5
version 5

Whole song

Interactive

3,043 views 1 this week
3 commentsread comments
1 2 3 4 5
excellent!
x 6
add to favorites
launch autoscroll
font size
0
reset
guitar tuner
Tab Pro tools
  • play this tab
  • loop segment
  • change instrument
  • show fretboard
  • metronome
×
Best way to learn
"Special Delivery"
Autoscroll
slow
fast
+/-
esc
set tempo
stop
Contributor
Difficulty
-------------------------------------------------------------------------------
			     SPECIAL DELIVERY - The Offspring
-------------------------------------------------------------------------------
Tabbed By : Alien
e-mail: conspiracy.of.smash@gmail.com
Tuning: half step down (Eb, Ab, Gb, Db)

I tabbed this because none of the bass tabs for it was completely accurate
and none of them had the whole song in it. So, here it is, in all it's glory:

Intro 
Gb|--------------------------------------------------------------------|
Db|-------------------------2-2-4-4-----------------------2-2-4-2------|
Ab|--------------------------------------------------------------------|
Eb|--14/2-2---0-2-2---0-2-2---------0-2-2---0-2-2---0-2-2--------------|

Gb|--------------------------------------------------------------------|
Db|-----------------------2-2-4-4-------------------------2-2-4-2------|
Ab|--------------------------------------------------------------------|
Eb|-0-2-2---0-2-2---0-2-2----------0-2-2---0-2-2---0-2-2---------------|

Verse: 2x
Gb|--------------------------------------------------------------------|
Db|-----------------------2-2-4-4------------------------2-2-4-2-------|
Ab|--------------------------------------------------------------------|
Eb|-0-2-2---0-2-2---0-2-2----------0-2-2---0-2-2---0-2-2---------------| 

Hey now, do you see me down the way
I've been watching you every day
In my car on your street is where I stay
I know you better that way

Pre-chorus
Gb|---------------------------------------------------------------------|
Db|---------------------------------------------------------------------|
Ab|-0-2-2---0-2-2---0-2-2---0-2-0---------------------7-7-7-7-7-7-7-7---|
Eb|-------------------------------2-0-2/5-5-5-5-5-5-5-------------------|
One day I'll be meeting you for real
You'll feel bad like I feel

Chorus (not too shure about this part (x2)
                          |
                          v
Gb|--------------------------------------------------------------------|
Db|--------------------------------------------------------------------|
Ab|----------------0-------------------------------7-7-7-7-7-7-7-7-----|
Eb|--2-2-2-0-2-2-2---2--2-0-0-2-2--5-5-5-5-5-5-5-5---------------------|

And I'll blow you away 
(You're gonna fall for me, you're gonna fall for me)
And the voices told me to blow you away
(You're gonna fall for me, you're gonna fall for me)
                                    
Verse 
Gb|--------------------------------------------------------------------|
Db|-----------------------2-2-4-4-------------------------2-2-4-2------|
Ab|--------------------------------------------------------------------|
Eb|-0-2-2---0-2-2---0-2-2----------0-2-2---0-2-2---0-2-2---------------|
*without lyrics*

Gb|--------------------------------------------------------------------|
Db|-----------------------2-2-4-4-------------------------2-2-4-2------|
Ab|--------------------------------------------------------------------|
Eb|-0-2-2---0-2-2---0-2-2----------0-2-2---0-2-2---0-2-2---------------|

Hey now, well I'm knocking at your door
This special delivery is yours 

Gb|------------------------------------------------------|
Db|-----------------------2-2-4-4------------------------|
Ab|------------------------------------------------------|
Eb|-0-2-2---0-2-2---0-2-2----------0-2-2---0-2-2---0-2---|

My infatuation it's true
Hello, got something for you

Chorus x3
Gb|--------------------------------------------------------------------|
Db|--------------------------------------------------------------------|
Ab|----------------0-------------------------------7-7-7-7-7-7-7-7-----|
Eb|--2-2-2-0-2-2-2---2--2-0-0-2-2--5-5-5-5-5-5-5-5---------------------|

And I'll blow you away 
(You're gonna fall for me, you're gonna fall for me)
And the voices told me to blow you away
(You're gonna fall for me, you're gonna fall for me)
If you hadn't sold me, I'd still be away
(You're right in front of me, you're right in front of me)

G|------------------------------------------------------------|
D|------------------------------------------------------------|
A|-5-5-5-5-5-5-5-5-5-5-5-5-5-5-5-5------------------7-7--7--7-|
E|---------------------------------7-7-7-7-7-7-7-7------------|
Then, I'll be on my way
Breathing you, okay

Verse 
Gb|--------------------------------------------------------------------|
Db|-----------------------2-2-4-4-------------------------2-2-4-2------|
Ab|--------------------------------------------------------------------|
Eb|-0-2-2---0-2-2---0-2-2----------0-2-2---0-2-2---0-2-2---------------|

Gb|--------------------------------------------------------------------|
Db|-----------------------2-2-4-4-------------------------2-2-4-2------|
Ab|--------------------------------------------------------------------|
Eb|-0-2-2---0-2-2---0-2-2----------0-2-2---0-2-2---0-2-2---------------|
 ooga chaka ooga chaka
 ooga ooga ooga chaka 
 ooga chaka ooga ooga

(x2)
Gb|--------------------------------------------------------------------|
Db|-----------------------2-2-4-4-------------------------2-2-4-2------|
Ab|--------------------------------------------------------------------|
Eb|-0-2-2---0-2-2---0-2-2----------0-2-2---0-2-2---0-2-2---------------|
 Can't break from my sins
 Cannot pray
 Can't break from my sins 
 Cannot pray

Bridge (x3 the whole, then once just to the brackets)
Gb|----------------)---------------------|
Db|----------------)---------------------|
Ab|----------------)---------------------|
Eb|-2-2-2-2-2-2-2-2)-2-2-2-2-2-2-2-2-----|
But you can't kill a man when he's got no hope
You can't kill a man when he's got no hope
You can't kill a man when he's got no hope
You can't kill a man when he's...God help me!

Chorus x3
Gb|--------------------------------------------------------------------|
Db|--------------------------------------------------------------------|
Ab|----------------0-------------------------------7-7-7-7-7-7-7-7-----|
Eb|--2-2-2-0-2-2-2---2--2-0-0-2-2--5-5-5-5-5-5-5-5---------------------|

And I'll blow you away 
(You're gonna fall for me, you're gonna fall for me)
And the voices told me to blow you away
(You're gonna fall for me, you're gonna fall for me)
If you hadn't sold me, I'd still be away
(You're right in front of me, you're right in front of me)

G|-------------------------------------------------------------|
D|-------------------------------------------------------------|
A|-5-5-5-5-5-5-5-5-5-5-5-5-5-5-5-5------------------7-7--7-7-7-|
E|---------------------------------7-7-7-7-7-7-7-7-------------|
Then, I'll be on my way
(no music)
When you breathe out on me

There. That's the whole of it, please rate cause it took me hella work
to get it done. If you find anything wrong with it, please email me. Enjoi.
comments
print report bad tab
3 comments total.
0 reply
WILKOFLEA wrote on April 16 2006, 08:31 am

u got the intro wrong man u dnt go to the D string the intro goes 12-12-14-14 E string

0 reply
FULLMOON wrote on December 20 2006, 05:12 pm

(This' for WILKOFLEA)dude I tink you don't know that 12 on E is the same note as 2 on D en that is also 14 on E is 4 on D

0 reply
RaiLeff wrote on April 7 2007, 07:16 pm

Wow this is 100% correct and its the BEST bass tab of this song :P
Congrats alien :D

I want to post or [tab]
guest
You may want to rate the tab now too:
select rating
Please do not post tabs as comments. Select "correction" instead!