Oops, an error
Loading. Please wait.

Splinter Tab

7,543 views 1 this week
13 commentsread comments
1 2 3 4 5
worth learning
x 10
add to favorites
launch autoscroll
font size
0
reset
how to read this tab
guitar tuner
Tab Pro tools
  • play this tab
  • loop segment
  • change instrument
  • show fretboard
  • metronome
Autoscroll
slow
fast
+/-
esc
set tempo
stop
Contributor
The Offspring - Splinter
Tabbed by:  Steve Q

This is the latest album from The Offspring
Good Album but maybe a bit short
All standard tuning EADGBE





Neocon

Verse:
E|-----------------------------|
B|-----------------------------|
G|----11-----11-----11-----11--| (x1)
D|-11-11--11-11--11-11--11-11--|
A|-9--9---9--9---9--9---9--9---|
E|-----------------------------|

E|------------------------------------|
B|------------------------------------|
G|----11-------11-------11-------11---| (x2)
D|-11-11----11-11----11-11----11-11---|
A|-9--9--6--9--9--6--9--9--6--9--9--6-|
E|------------------------------------|

E|----------------|
B|----------------|
G|----11--8--6--8-|
D|-11-11--8--6--8-|
A|-9--9---6--4--6-|
E|----------------|



The Noose

Intro

|--------------------------------------------------------------------|
|--------------------------------------------------------------------|
|--------------------------------------------------------------------|
|-----9-----9---------5-5---5-5---5--0-0-4-0-5-0-4-0-2-0-4-0-5-0-4-0-|
|-7-7---7-7-------0--------------------------------------------------|
|-------------------3-----3-----3------------------------------------|

Pre-verse

|----------|
|----------|
|----------|
|-2--------|
|-2--------|
|-0--------|

|----------------------------------------|
|----------------------------------------|
|----------------------------------12----|
|-2----------5----------12---------------|
|-2--------------------------------------|
|-0--------------------------------------|

Verse (followed by bass and drums)

|----------|
|----------|
|----------|
|-2--------|
|-2--------|
|-0--------|

Pre Chorus

|--------------------------------------------------------------------|
|--------------------------------------------------------------------|
|-----------------------------------7-7-7-7-7-7-7-7--9-9-9-9-9-9-9-9-|
|-2-2-2-2-2-2-2-2--5-5-5-5-5-5-5-5--7-7-7-7-7-7-7-7--9-9-9-9-9-9-9-9-|
|-2-2-2-2-2-2-2-2--5-5-5-5-5-5-5-5--5-5-5-5-5-5-5-5--7-7-7-7-7-7-7-7-|
|-0-0-0-0-0-0-0-0--3-3-3-3-3-3-3-3-----------------------------------|


|--------------------------------------------------------------------|
|--------------------------------------------------------------------|
|-----------------------------------7-7-7-7-7-7-7-7--7-7-7-7-7-7-7-7-|
|-2-2-2-2-2-2-2-2--5-5-5-5-5-5-5-5--7-7-7-7-7-7-7-7--7-7-7-7-7-7-7-7-|
|-2-2-2-2-2-2-2-2--5-5-5-5-5-5-5-5--5-5-5-5-5-5-5-5--5-5-5-5-5-5-5-5-|
|-0-0-0-0-0-0-0-0--3-3-3-3-3-3-3-3-----------------------------------|


Chorus x 2

|--------------------------------------------------------------------|
|--------------------------------------------------------------------|
|-9-9-9-9-9-9-9-9-------------------7-7-7-7-7-7-7-7--9-9-9-9-9-9-9-9-|
|-9-9-9-9-9-9-9-9--5-5-5-5-5-5-5-5--7-7-7-7-7-7-7-7--9-9-9-9-9-9-9-9-|
|-7-7-7-7-7-7-7-7--5-5-5-5-5-5-5-5--5-5-5-5-5-5-5-5--7-7-7-7-7-7-7-7-|
|------------------3-3-3-3-3-3-3-3-----------------------------------|

Verse 2 x 3

|---------|
|---------|
|---------|
|-2--2----|
|-2--2----|
|-0--0----|

|-----------------|
|-----------------|
|-7-7-7-7-7-7-7-7-|
|-7-7-7-7-7-7-7-7-|x4
|-5-5-5-5-5-5-5-5-|
|-----------------|

Chorus
Intro 

Solo
|-----------------------------|
|-----------------------------|
|------16—16--14--14--19--21--|
|--14-------------------------|
|-----------------------------|
|-----------------------------|

Chorus
Verse 2 and three part
Intro

Outro
      
|-------------------|-------------------|
|-------------------|-------------------|
|-7-9-9-9-9-(9)-9-9-|-------------------|
|-7-9-9-9-9-(9)-9-9-|-4-5-5-5-5-(5)-5-5-|
|-5-7-7-7-7-(7)-7-7-|-4-5-5-5-5-(5)-5-5-|
|-------------------|-2-3-3-3-3-(3)-3-3-|
PM      .         .         .         .

|-------------------|-------------------|
|-------------------|-------------------|
|-5-7-7-7-7-(7)-7-7-|-7-9-9-9-9-(9)-9-9-|
|-5-7-7-7-7-(7)-7-7-|-7-9-9-9-9-(9)-9-9-|
|-3-5-5-5-5-(5)-5-5-|-5-7-7-7-7-(7)-7-7-|
|-------------------|-------------------|
PM      .         .         .         .








Long Way Home

Intro

E|--------------------------------------|
B|--------------------------------------|
G|-9/12-11-9-7-9-9/12-11-9-7-9-7-4-7-9--|
D|-7/12-11-9-7-9-9/12-11-9-7-9-7-4-7-9--|
A|-7/10--9-7-5-7-7/10-9--7-5-7-5-2-5-7--|
E|--------------------------------------|

Verse

E|-------------|---------------------------------|
B|-------------|---------------------------------|
G|-9-9--7------|-9-9-11-9-9-9-------5-5-7-7------|
D|-9-9--7------|-9-9-11-9-9-9-7-7-7-5-5-7-7------|
A|-7-7--5------|-7-7-9--7-7-7-7-7-7-3-3-5-5------|
E|-------------|--------------5-5-5--------------|

First part 8 times second part 2 times

E|------------------------------------------------|
B|------------------------------------------------|
G|-9-9-7-9-9-9-12-12-12-12-12-55-5-5-55-77-7-7-77-|
D|-9-9-7-9-9-9-12-12-12-12-12-55-5-5-55-77-7-7-77-|
A|-7-7-9-7-7-7-10-10-10-10-10-33-3-3-33-55-5-5-55-|
E|------------------------------------------------|

E|---------------------------------|
B|---------------------------------|
G|-9-9-11-9-9-9-------5-5-7-7------|
D|-9-9-11-9-9-9-7-7-7-5-5-7-7------| x2
A|-7-7-9--7-7-7-7-7-7-3-3-5-5------|
E|--------------5-5-5--------------|

E|------------------------------------------------|
B|------------------------------------------------|
G|-9-9-7-9-9-9-12-12-12-12-12-55-5-5-55-77-7-7-77-|
D|-9-9-7-9-9-9-12-12-12-12-12-55-5-5-55-77-7-7-77-|
A|-7-7-9-7-7-7-10-10-10-10-10-33-3-3-33-55-5-5-55-|
E|------------------------------------------------|

Chorus

E|-------------------------------|-------|
B|-------------------------------|-------|
G|-9-99-12--12-12-7-77---7-------|-5--7--|
D|-9-99-12--12-12-7-77-7-7-------|-5--7--| 
A|-7-77-10--10-10-5-55-7-5-------|-3--5--|
E|---------------------5---------|-------|

First part time 3
Second part let the first note ring but not the second


Verse 2
E|-------------|---------------------------------|
B|-------------|---------------------------------|
G|-9-9--7------|-9-9-11-9-9-9-------5-5-7-7------|
D|-9-9--7------|-9-9-11-9-9-9-7-7-7-5-5-7-7------|
A|-7-7--5------|-7-7-9--7-7-7-7-7-7-3-3-5-5------|
E|-------------|--------------5-5-5--------------|
                 
First part x4 
Second part x2 and palm muted

E|------------------------------------------------|
B|------------------------------------------------|
G|-9-9-7-9-9-9-12-12-12-12-12-55-5-5-55-77-7-7-77-|
D|-9-9-7-9-9-9-12-12-12-12-12-55-5-5-55-77-7-7-77-|
A|-7-7-9-7-7-7-10-10-10-10-10-33-3-3-33-55-5-5-55-|
E|------------------------------------------------|
   Palm mute all

E|---------------------------------|
B|---------------------------------|
G|-9-9-11-9-9-9-------5-5-7-7------|
D|-9-9-11-9-9-9-7-7-7-5-5-7-7------| x2
A|-7-7-9--7-7-7-7-7-7-3-3-5-5------|
E|--------------5-5-5--------------|

E|------------------------------------------------|
B|------------------------------------------------|
G|-9-9-7-9-9-9-12-12-12-12-12-55-5-5-55-77-7-7-77-|
D|-9-9-7-9-9-9-12-12-12-12-12-55-5-5-55-77-7-7-77-|
A|-7-7-9-7-7-7-10-10-10-10-10-33-3-3-33-55-5-5-55-|
E|------------------------------------------------|

Chorus 2

E|-------------------------------|
B|-------------------------------|
G|-9-99-12--12-12-7-77---7-------|
D|-9-99-12--12-12-7-77-7-7-------| x3
A|-7-77-10--10-10-5-55-7-5-------|
E|---------------------5---------|

Intro

Verse 1

Palm mute
E|-------------------------------------|
B|-------------------------------------|
G|-55555555-77777777--44-4-4-44-4444-4-|
D|-55555555-77777777--44-4-4-44-4444-4-|
A|-33333333-55555555--22-2-2-22-2222-2-|
E|-------------------------------------|

Chorus (x2)
Intro








Hit That

Intro

E|------------------| 
B|------------------|
G|------------------|
D|--5--7---2--2--2--|
A|--5--7---2--2--2--|
E|--3--5---0--0--0--|

E|---------------------|
B|---------------------|
G|---------------------|
D|--2-----2-----2-----2|   
A|--2-----2-----2-----2|
E|--0-----0-----0-----0|

Pre Chorus

E|-------------------------------------|
B|-------------------------------------|
G|-------------------------------------|
D|--5-5-5-5-5-5-5-5---7-7-7-7-7-7-7-7--|
A|--5-5-5-5-5-5-5-5---7-7-7-7-7-7-7-7--|
E|--3-3-3-3-3-3-3-3---5-5-5-5-5-5-5-5--|

Chorus

E|-------------------------------------------------------|
B|-------------------------------------------------------|
G|-------9-9-------9-9-----------------------------------|
D|--2-2--9-9--2-2--9-9--5--5-5-4-5-5-5--7-7-7-7-5-7-7-7--| X2
A|--2-2--7-7--2-2--7-7--5--5-5-4-5-5-5--7-7-7-7-5-7-7-7--|
E|--0-0-------0-0-------3--3-3-2-3-3-3--5-5-5-5-3-5-5-5--|


E|-------------------------------------|
B|-------------------------------------|
G|-------9-9-------9-9--5--5-5-5-5-5-5-|
D|--2-2--9-9--2-2--9-9--5--5-5-5-5-5-5-|
A|--2-2--7-7--2-2--7-7--3--3-3-3-3-3-3-|
E|--0-0-------0-0----------------------|

E|----------------------------------------------------------------------|
B|----------------------------------------------------------------------|
G|------------------------------------4-4-4-4-4-4-4-4-------------------|
D|--7-7-7-7-7-7-7-7--2-2-2-2-2-2-2-2--4-4-4-4-4-4-4-4---5--7---2--2--2--|
A|--7-7-7-7-7-7-7-7--2-2-2-2-2-2-2-2--2-2-2-2-2-2-2-2---5--7---2--2--2--|
E|--5-5-5-5-5-5-5-5--0-0-0-0-0-0-0-0--------------------3--5---0--0--0--|


Bridge

E|------------------|
B|------------------|
G|--9--9------9--9--|
D|--9--9------9--9--| x2
A|--7--7------7--7--|
E|------------------|








Race against Myself

|------------------------------------|
|------------------------------------|
|---------7-7-7-7--------------------|
|-4-4-4-4-7-7-7-7-7-7-7-7-2-2-2-2----| intro, chorus
|-4-4-4-4-5-5-5-5-7-7-7-7-2-2-2-2----|
|-2-2-2-2---------5-5-5-5-0-0-0-0----|


|------------------------------------|
|------------------------------------|
|------------------------------------|
|-4-4-4-4-4-4-4-4-2-2-2-2-2-2-2-2----| verse palm muted, then not
|-4-4-4-4-4-4-4-4-2-2-2-2-2-2-2-2----|
|-2-2-2-2-2-2-2-2-0-0-0-0-0-0-0-0----|

|-----------------------------------|
|-----------------------------------|
|-----------------------------------|
|-----4-----4-----4----4-5-4-5------| bridge 
|----------------------2-3-2-3------|
|-2-2---2-2---2-2---2---------------|

|-----------------------------------|
|-----------------------------------|
|-----------------------------------|
|-----4-----4-----4----4-5----------| bridge part 2
|----------------------2-3----------|
|-2-2---2-2---2-2---2---------------|








(Can't Get My) Head around You

Intro

E-------------------------------------------------------------------|
B-------------------------------------------------------------------|
G--9-9--9-9---9-9--9-9----------------------------------------------|
D--9-9--9-9---9-9--9-9----------------------------------------------|
A--7-7--7-7---7-7--7-7----------------------------------------------|
E-------------------------------------------------------------------|
 
Verse x4

E-------------------------------------------------------------------|
B-------------------------------------------------------------------|
G-----------------4-7-7-7-------------------------------------------|
D--2-2-2-4-5-5-5--4-7-7-7--5-7-7-7----------------------------------|
A--2-2-2-4-5-5-5--2-5-5-5--5-7-7-7----------------------------------|
E--0-0-0-2-3-3-3-----------3-5-5-5----------------------------------|
 

Chorus

E-------------------------------------------------------------------|
B-------------------------------------------------------------------|
G------------4-7-7--------------------------------------------------|
D--2-2-4-5-5-4-7-7-5-7-7--------------------------------------------|
A--2-2-4-5-5-2-5-5-5-7-7--------------------------------------------|
E--0-0-2-3-3-------3-5-5--------------------------------------------|
 
Bit after chorus (also played after the bridge the first time)

E-------------------------------------------------------------------|
B-------------------------------------------------------------------|
G--5-5-5-5-5-5-5-5-5-5-5-5-5-5-5-5----------------------------------|
D--5-5-5-5-5-5-5-5-5-5-5-5-5-5-5-5--2-2--2-2--2-2--2-2--------------|
A--3-3-3-3-3-3-3-3-3-3-3-3-3-3-3-3--2-2--2-2--2-2--2-2--------------|
E-----------------------------------0-0--0-0--0-0--0-0--------------|
 
E-------------------------------------------------------------------|
B-------------------------------------------------------------------|
G--5-5-5-5-5-5-5-5-5-5-5-5-5-5-5-5-7-7-7-7-7-7-7-7-4-4-4-4-4-4-4-4--|
D--5-5-5-5-5-5-5-5-5-5-5-5-5-5-5-5-7-7-7-7-7-7-7-7-4-4-4-4-4-4-4-4--|
A--3-3-3-3-3-3-3-3-3-3-3-3-3-3-3-3-5-5-5-5-5-5-5-5-2-2-2-2-2-2-2-2--|
E-------------------------------------------------------------------|
 

Solo (with wah pedal)

E-------------------------------------------------------------------|
B--------------------------15-15------------------------------------|
G--12-12-12-12-12-12-12-12-------14-14------------------------------|
D-------------------------------------------------------------------|
A-------------------------------------------------------------------|
E-------------------------------------------------------------------|
 

Bridge (played after solo)

E--------------------------------------|
B--------------------------------------|
G--9-9--9-9---9-9--9-9-----------------|
D--9-9--9-9---9-9--9-9-----------------|
A--7-7--7-7---7-7--7-7-----------------|
E--------------------------------------|
 







The Worst Hangover Ever

Not sure if this one is quite right

Intro and Verse

E|-6--6--6--6---4--4---2--2--|
B|-7--7--7--7---6--6---4--4--|
G|-6--6--6--6---6--6---4--4--|
D|---------------------------|
A|---------------------------|
E|---------------------------|

Chorus

E|-6--6--6--6---9---9----7--7--|
B|-7--7--7--7---9---9----7--7--|
G|-6--6--6--6---10--10---8--8--|
D|-----------------------------|
A|-----------------------------|
E|-----------------------------|

Middle Part

E|-1-1-1-1--2-2-2-2--6-6-6-6-6-6-6-6--4-4-4-4-4-4-4-4-|
B|-3-3-3-3--4-4-4-4--7-7-7-7-7-7-7-7--4-4-4-4-4-4-4-4-|
G|-3-3-3-3--4-4-4-4--6-6-6-6-6-6-6-6--5-5-5-5-5-5-5-5-|
D|----------------------------------------------------|
A|----------------------------------------------------|
E|----------------------------------------------------|








Never Gonna Find Me

Intro

E|---|-------------------------------------------------------|
B|---|-------------------------------------------------------|
G|---|-9-9-9------------------------------12-12--9-9-9-------|
D|---|-9-9-9--x-x--7-7-7---------x-10-10--12-12--9-9-9--x-x--|
A|-7-|-7-7-7--x-x--7-7-7---------x-10-10--10-10--7-7-7--x-x--|
E|-0-|--------x-x--5-5-5---------x--8--8----------------x-x--|


Verse

E|-----------------------------------------------------------|
B|-----------------------------------------------------------|
G|--9-9-9---------------------------12-12--9-9-9-------------|
D|--9-9-9-------7-7-7--x-x---10-10--12-12--9-9-9-------------|
A|--7-7-7-------7-7-7--x-x---10-10--10-10--7-7-7-------------|
E|--------------5-5-5--x-x----8--8---------------------------|


E|-----------------------------------------------------------|
B|-----------------------------------------------------------|
G|--9-9-9---------------------------12-12--9-9-9-------------|
D|--9-9-9-------7-7-7--x-x---10-10--12-12--9-9-9--9-9-9------|
A|--7-7-7-------7-7-7--x-x---10-10--10-10--7-7-7--9-9-9------|
E|--------------5-5-5--x-x----8--8----------------7-7-7------|


Chorus

E|-----------------------------------------------------------|
B|-----------------------------------------------------------|
G|--9-9-9-9-9-9-9-9--12-12--7---9-9-9-9-9-9-9-9--12-12--7----|
D|--9-9-9-9-9-9-9-9--12-12--7---9-9-9-9-9-9-9-9--12-12--7----|
A|--7-7-7-7-7-7-7-7--10-10--5---7-7-7-7-7-7-7-7--10-10--5----|
E|-----------------------------------------------------------|


E|-------------------------------------------------------|
B|-------------------------------------------------------|
G|----------------------------------------------5------7-|
D|-2-2-2-2-2-2--5-5-5-5-5-5-5--7-7-7-7-7-7--5-5-5--7-7-7-|
A|-2-2-2-2-2-2--5-5-5-5-5-5-5--7-7-7-7-7-7--3-3-3--5-5-5-|
E|-0-0-0-0-0-0--3-3-3-3-3-3-3--5-5-5-5-5-5---------------|

Riff

E|-------|--------------------------------------------------|
B|-------|--------------------------------------------------|
G|--9----|--9-9-9-9-9-9-9-9-9-9-9-9-9-9-9-9-9-9-9-9-9-9-9-9-|
D|--9----|--x-x-x-x-x-x-x-x-x-x-x-x-x-x-x-x-x-x-x-x-x-x-x-x-|
A|--7----|--7-7-7-7-7-7-7-7-7-7-7-7-7-7-7-7-7-7-7-7-7-7-7-7-|
E|-------|--------------------------------------------------|


Outro 
E|-----------------------------------------------------------|
B|-----------------------------------------------------------|
G|--9-9-9----------------------------------------------------|
D|--9-9-9----7-7----10-10-10-10----9-9-9-9-9-9-9-9-----------|
A|--7-7-7----7-7----10-10-10-10----7-7-7-7-7-7-7-7-----------|
E|-----------5-5-----8--8--8--8----0-0-0-0-0-0-0-0-----------|

E|-----------------------------------------------------------|
B|-----------------------------------------------------------|
G|--9-9-9----------------------------------------------------|
D|--9-9-9----7-7----10-10-10-10----9-9-9-9-9-9-9-9-----------|
A|--7-7-7----7-7----10-10-10-10----7-7-7-7-7-7-7-7-----------|
E|-----------5-5-----8--8--8--8----0-0-0-0-0-0-0-0-----------|

E|-----------------------------------------------------------|
B|-----------------------------------------------------------|
G|--9-9-9----------------------------------------------------|
D|--9-9-9----7-7----10-10-10-10----9-9-9-9-9-9-9-9-----------|
A|--7-7-7----7-7----10-10-10-10----7-7-7-7-7-7-7-7-----------|
E|-----------5-5-----8--8--8--8----0-0-0-0-0-0-0-0-----------|







Lightning Rod

Intro
E|---------------------------------|
B|---------------------------------|
G|---------------------------------|(x8)
D|---------------------------------|
A|---------------------------------|
E|-1-1-1-1-1-1-1-1-1-1-1-1-1-1-1-1-|

Intro (Guitar 2):
E|-------|
B|-------|
G|-------|(x6) let ring
D|-3--3--|
A|-3--3--|
E|-1--1--|

Verse 

E|----------------------------------------------------|
B|----------------------------------------------------|
G|-10--10-10-10--10-10------------6-6-66-66-----------|(x2)
D|-10--10-10-10--10-10--8-8-88-88-6-6-66-66-3-3-33-33-|
A|-8---8--8--8---8--8---8-8-88-88-4-4-44-44-3-3-33-33-|
E|----------------------6-6-66-66-----------1-1-11-11-|

Chorus

E|------------------------------|
B|------------------------------|
G|-------------------8----------|(x2) let the last note ring
D|-3--3--5--6--5--3--8----------|
A|-3--3--5--6--5--3--6----------|
E|-1--1--3--4--3--1-------------|

E|---------------------------------|
B|---------------------------------|
G|-------------------8--5--3--8--5-|(x1)
D|-3--3--5--6--5--3--8--5--3--8--5-|
A|-3--3--5--6--5--3--4--3--1--6--3-|
E|-1--1--3--4--3--1----------------|

Bit after chorus

E|------|
B|------|
G|-6--8-|(x2) let all notes ring
D|-6--8-|
A|-4--6-|
E|------|


Riff

E|--------------------------------------------|
B|--------------------------------------------|
G|--------------------------------------------|(x2)
D|--------------------------------------------|
A|-3--6-5-6-5—--3-6-5-6—---3-6-5-6----6-5-6-3-|
E|--------------------------------------------|

Interlude - bass but with pick scraping on the guitar

Bit after the interlude

E|-----------------------------------------|
B|-----------------------------------------|
G|---------------------6-6-66-66-----------|(x2)
D|-3-3-33-33-8-8-88-88-6-6-66-66-3-3-33-33-|
A|-3-3-33-33-8-8-88-88-4-4-44-44-3-3-33-33-|
E|-1-1-11-11-6-6-66-66-----------1-1-11-11-|

To finish play the riff once







Spare me the details

Main riff - played on acoustic

E|---------------------------------------------------------------|
B|---------------------------------------------------------------|
G|----------------8-8--8--6-6--6-----------------8-8--8--6-6--6--|
D|-6-6--6-6-6--6--8-8--8--6-6--6--6-6--6-6-6--6--8-8--8--6-6--6--|
A|-6-6--6-6-6--6--6-6--6--4-4--4--6-6--6-6-6--6--6-6--6--4-4--4--|
E|-4-4--4-4-4--4------------------4-4--4-4-4--4------------------|

E|----------------------------------------------------------------|
B|----------------------------------------------------------------|
G|----------------10-10--10--8-8--8-----------------8-8--8--6-6--6|
D|-6-6--6-6-6--6--10-10--10--8-8--8--6-6--6-6-6--6--8-8--8--6-6--6|
A|-6-6--6-6-6--6--8--8---8---6-6--6—-6-6--6-6-6--6--6-6--6--4-4--4|
E|-4-4--4-4-4--4---------------------4-4--4-4-4—-4----------------|


Solo (guitar 2)


E|-------8-----6-------4----|
B|---9-----9-----8-------6--|
G|-8---8------------6-------| X2
D|--------------------------|
A|--------------------------|
E|--------------------------|


Palm muted interlude

E|------------------------------------------------------------------|
B|------------------------------------------------------------------|
G|------------------------------------------------------------------|
D|------------------------------------------------------------------|x2 
A|-----------------6-6-6-6-4-4-4-4-----------------4-4-4-4-6-6-6-6--|
E|-4-4-4-4-4-4-4-4-----------------4-4-4-4-4-4-4-4------------------|
 

Pre Bridge Electric on

E|------------------------------------------------------------------|
B|------------------------------------------------------------------|
G|------------------------------------------------------------------|
D|------7---------7-7-7-7-7-7-7-7-----------------------------------|
A|------7---------7-7-7-7-7-7-7-7-----------------------------------|
E|------5---------5-5-5-5-5-5-5-5-----------------------------------|

Let the first note ring

E|------------------------------------------------------------------|
B|------------------------------------------------------------------|
G|-----11—11-11-11-11-11-11-----------------------------------------|
D|-----11-11-11-11-11-11-11------9—9—9—9—9-9-9-9--------------------|
A|------9—-9--9—-9—-9--9—-9------9-9-9-9-9-9-9-9--------------------|
E|-------------------------------7-7-7-7-7-7-7-7--------------------|

E|------------------------------------------------------------------|
B|------------------------------------------------------------------|
G|-----9-9-9-9-9-9-9-----6-6-6-6-6-6-6------------------------------|
D|-----9-9-9-9-9-9-9-----6-6-6-6-6-6-6------------------------------|
A|-----7-7-7-7-7-7-7-----4-4-4-4-4-4-4------------------------------|
E|------------------------------------------------------------------|


E|------------------------------------------------------------------|
B|------------------------------------------------------------------|
G|-----11—11-11-11-11-11-11-----------------------------------------|
D|-----11-11-11-11-11-11-11------9—9—9—9—9-9-9-9--------------------|
A|------9—-9--9—-9—-9--9—-9------9-9-9-9-9-9-9-9--------------------|
E|-------------------------------7-7-7-7-7-7-7-7--------------------|

E|------------------------------------------------------------------|
B|------------------------------------------------------------------|
G|-----9-9-9-9-9-9-9-9-9-9-9-9-9-9-9-9-9-9--------------------------|
D|-----9-9-9-9-9-9-9-9-9-9-9-9-9-9-9-9-9-9--------------------------|
A|-----7-7-7-7-7-7-7-7-7-7-7-7-7-7-7-7-7-7--------------------------|
E|------------------------------------------------------------------|

E|------------------------------------------------------------------|
B|------------------------------------------------------------------|
G|-----7-7-7-7-7-7-7-7-7-7-7-7-7-7-7-7-7-7--------------------------|
D|-----7-7-7-7-7-7-7-7-7-7-7-7-7-7-7-7-7-7--------------------------|
A|-----5-5-5-5-5-5-5-5-5-5-5-5-5-5-5-5-5-5--------------------------|
E|------------------------------------------------------------------|


Main Riff back to acoustic 

To finish play 

E|------------|
B|------------|
G|------------|
D|---8--------| x2
A|---8--------|
E|---6--------|








Da Hui

Main Riff

E|------------------|
B|------------------|
G|-------9----------|
D|-6-4-6-9-9-11-9-6-|
A|-6-4-6-7-9-11-9-6-|
E|-4-2-4---7-9--7-4-| 6x

Verse

E|-------|
B|-------|
G|-9-----|
D|-9-4-6-|
A|-7-4-6-|
E|---2-4-| 4x

Main Riff

E|------------------|
B|------------------|
G|-------9----------|
D|-6-4-6-9-9-11-9-6-|
A|-6-4-6-7-9-11-9-6-|
E|-4-2-4---7-9--7-4-| 3x

Verse

E|-------|
B|-------|
G|-9-----|
D|-9-4-6-|
A|-7-4-6-|
E|---2-4-| 

Solo first part
E|------------------------------------|
B|-------------------9----------------|
G|-888--999-6-9-888----6-9-888--999-6-|
D|------------------------------------|
A|------------------------------------|
E|------------------------------------|

Solo second part
E|--------------------------|
B|--------------------------|
G|--------------------------|
D|--------------------------|
A|-----33-44-6-4-4-3-4------|
E|-4-5-----------------5b-4-|


Verse

E|-------|
B|-------|
G|-9-----|
D|-9-4-6-|
A|-7-4-6-|
E|---2-4-| 

Bridge 

E|---------------|
B|---------------|
G|---------------|
D|-66-66-6-6-6-6-|
A|-66-66-6-6-6-6-|
E|-44-44-4-4-4-4-|

Outro

E|---------------------------|
B|---------------------------|
G|-------9-------------------|
D|-6-4-6-9-9-11-9-6666-4-7-6-|
A|-6-4-6-7-9-11-9-6666-4-7-6-|
E|-4-2-4---7-9--7-4444-2-5-4-|





When you're in Prison

No Guitar in this so very easy


That's all folks any comments or suggestions e-mail me at crunchie36@hotmail.com
Please rate and if you use it credit me
comments
print report bad tab
13 comments total. Showing first comments.
0 reply
pill2comawhite wrote on January 22 2004, 12:00 am

just a collection of other tabs combined for an album

0 reply
Rankles wrote on January 22 2004, 12:00 am

Yeah, plus the ones you've done are... plain. Bits missing, chords when it should be octaves, poorly touched up. A good guide I guess.

0 reply
sonicchaos wrote on January 31 2004, 12:00 am

This is ok but not great...Hit That is perfect but stolen from someone else. Many of these songs use octaves not Chords. Lightning Rod is wrong, so is Race Against Myself. Where's the intro and chorus octaves at? I could point out more but it would take too long. Very bad compilation.

I want to post or [tab]
guest
You may want to rate the tab now too:
select rating
Please do not post tabs as comments. Select "correction" instead!