Oops, an error
Loading. Please wait.

Staring At The Sun Live Bass Tab

190 views 3 this week
no commentswrite comment
1 2 3 4 5
please rate
add to favorites
launch autoscroll
font size
0
reset
guitar tuner
Tab Pro tools
  • play this tab
  • loop segment
  • change instrument
  • show fretboard
  • metronome
Autoscroll
slow
fast
+/-
esc
set tempo
stop
Contributor
+++++++++++++++++++++++++++++++++++++
| The Offspring- Staring At The Sun |
+++++++++++++++++++++++++++++++++++++


This is the Live version from the Happy Hour CD!


Tuning: EADG



Verse
"If I seem bleak..."
1.
G|-----------------------------------------------------------------------------------|
D|-----2222-2----------------2222-2----------------2222-2----------------2-2-4-4-6-6-|
A|-444--------------2223-444--------------2223-444--------------2223-4-4-------------|
E|------------222-2-----------------222-2-----------------222-2----------------------|

Chorus
"As you're staring at the sun..."
2.
G|-----------------------------------------------------------------------------------|
D|-----2222-2----------------2222-2----------------2222-2----------------2-2-4-4-6-6-|
A|-444--------------2223-444--------------2223-444--------------2223-4-4-------------|
E|------------222-2-----------------222-2-----------------222-2----------------------|

Outro
3.
G|-----------------|
D|-----------------|
A|-444-442-444-442-|
E|-----------------|

Verse
"When I ran I didnt feel like a runaway..."
4.
G|-----------------------------------------------------------------------------|
D|----------------------------------------------------------2-22-222-----------|
A|-4-44----------2222-4-44----------2222-4-44----------2222----------0000-2222-|
E|------000-2222-----------000-2222-----------000-2222-------------------------|

"Though you hear me..."
5.
G|-----------------------------------------------------------------------------|
D|---------------------------------------------------------------2-2-24-4-46-6-|
A|-4-44----------2222-4-44----------2222-4-44----------2222-4-4-4--------------|
E|------000-2222-----------000-2222-----------000-2222-------------------------|

Chorus
"As you're staring at the sun..." (Fast picking...)
6.
G|-------------------------------------------------------------------------|
D|----------22222222-44444444-------------------22222222-44444444----------|
A|-44444444-------------------22222222-44444444-------------------22222222-|
E|-------------------------------------------------------------------------|

Verse
"When I ran I didnt feel like a runaway..."
7.
G|-----------------------------------------------------------------------------|
D|----------------------------------------------------------2-22-222-----------|
A|-4-44----------2222-4-44----------2222-4-44----------2222----------0000-2222-|
E|------000-2222-----------000-2222-----------000-2222-------------------------|

"Though you hear me..."
8.
G|-----------------------------------------------------------------------------|
D|---------------------------------------------------------------2-2-24-4-46-6-|
A|-4-44----------2222-4-44----------2222-4-44----------2222-4-4-4--------------|
E|------000-2222-----------000-2222-----------000-2222-------------------------|

Chorus
"As you're staring at the sun..." 
9.
G|-------------------------------------------------------------------------|
D|----------22222222-44444444-------------------22222222-44444444----------|
A|-44444444-------------------22222222-44444444-------------------22222222-|
E|-------------------------------------------------------------------------|

Bridge
"Maybe life is like a ride on a freeway..."
10.
G|------------------------------------------------------------|
D|-----------------------------------------22222222-----------|
A|-4x--------2-4x--------223-4x--------224----------0000-2222-|
E|------------------------------------------------------------|

Verse
"If I seem bleak..."
11.
G|--------------------------------------------------------------------------------|
D|------------------------------------------------------------------2-2-24-4-46-6-|
A|-4444-----------2222-4444-----------2222-4444-----------2222-4-4-4--------------|
E|------0000-2222-----------0000-2222-----------0000-2222-------------------------|

Chorus
"As you're staring at the sun..."
12.
G|--------------------------------------------------------------------------------|
D|------------------------------------------------------------------2-2-24-4-46-6-|
A|-4444-----------2222-4444-----------2222-4444-----------2222-4-4-4--------------|
E|------0000-2222-----------0000-2222-----------0000-2222-------------------------|

Outro
13.
G|-----------|
D|-----------|
A|-4x--------|
E|-----------|

Please rate thanks!


Lyrics:

Maybe life is like a ride on a freeway
Dodging bullets while you're trying to find your way
Everyone's around, but no one does a damn thing
It brings me down, but I won't let them

If I seem bleak
Well you'd be correct
And if I don't speak
It's cause I can't disconnect
But I won't be burned by the reflection
Of the fire in your eyes
As you're staring at the sun

When I ran I didn't feel like a runaway
When I escaped I didn't feel like I got away
There's more to living than only surviving
Maybe I'm not there, but I'm still trying

Though you hear me
I don't think that you relate
My will is something
That you can't confiscate
So forgive me, but I won't be frustrated
By destruction in your eyes
As you're staring at the sun



+++++++++++++++++++++++++++++++++
| RaiLeff                       |
| Underground__Dora@Hotmail.Com |
+++++++++++++++++++++++++++++++++
comments
We did not receive enough feedback on this tab! Please rate:
print report bad tab
1 2 3 4 5
I want to post or [tab]
guest
You may want to rate the tab now too:
select rating
Please do not post tabs as comments. Select "correction" instead!