Oops, an error
Loading. Please wait.

Staring At The Sun Bass Tab

version 2
version 2

Whole song

Interactive

3,659 views 1 this week
no commentswrite comment
1 2 3 4 5
please rate
add to favorites
launch autoscroll
font size
0
reset
guitar tuner
Tab Pro tools
  • play this tab
  • loop segment
  • change instrument
  • show fretboard
  • metronome
×
Best way to learn
"Staring At The Sun"
Autoscroll
slow
fast
+/-
esc
set tempo
stop
Contributor
Bass comes in at 00:16 with drums

(00:16)Verse                             (00:25)
G|-------Repeat x3----------------------|---------------------------------|
D|--------------------------------------|---------------------------------|
A|--5-5-5-5--8--8--8--8---------3-3-3-4-|-5-5-5-8--8--8-10--10-10-12---12-|
E|----------------------3-3-3-3---------|---------------------------------|
   
                                                                          
(00:28) Chorus                           (00:38)
G|----Repeat x3-------------------------|----------------------------------|
D|--------------------------------------|----------------------------------|
A|--5-5-5-5--8--8--8--8---------3-3-3-4-|-5--5-5--8---8--8-10--10-10-12-12-|
E|----------------------3-3-3-3---------|----------------------------------|


(00:42) Break
e|-----------|
B|-----------|
G|-----------|
D|-----------|
A|-5-5-----5-|
E|-----------|

(00:44) Verse 1st part                (00:52)
G|--Repeat x3---------------------|---------------------------------------|
D|--------------------------------|---------------------------------------|
A|--5-5--5-5--8--8----------3-3-4-|--8---8---8---8------------------------|
E|-----------------3-3-3-3--------|-----------------6-6-6-6--8--8--8--8---|


(00:54) Verse 2nd part                 (01:02)
G|------Repeat x3------------------|------------------------------------|
D|---------------------------------|------------------------------------|
A|--5-5---5----------------3-3-3-4-|-5--5-5--8---8--8-10--10-10-12---12-|
E|----------1-1--1-3-3---3---------|------------------------------------|

(01:05) Chorus

G|----------------------------------------|
D|----------------------------------------|
A|-----------8-8-8-8-10101010-------------| x2
E|-10101010--------------------8--8--8--9-|
      

(01:11) Verse 1st part                (01:19)
G|----Repeat x3-------------------|---------------------------------------|
D|--------------------------------|---------------------------------------|
A|--5-5--5-5--8--8----------3-3-4-|--8---8---8---8------------------------|
E|-----------------3-3-3-3--------|-----------------6-6-6-6--8--8--8--8---|


(01:22) Verse 2nd part                 (01:30)
G|----Repeat x3--------------------|------------------------------------|
D|---------------------------------|------------------------------------|
A|--5-5---5----------------3-3-3-4-|-5--5-5--8---8--8-10--10-10-12---12-|
E|----------1-1--1-3-3---3---------|------------------------------------|

(01:33) Chorus

G|----------------------------------------|
D|----------------------------------------|
A|-----------8-8-8-8-10101010-------------| x2
E|-10101010--------------------8--8--8--9-|
      

(01:39) Bridge

G|-------------------------------------------------------------------------|
D|-------------------------------------------------------------------------|
A|-5-----3--5-----3-3-3-4-5-------3-3-3-4---8--8--8--8---------------------|
E|-----------------------------------------------------6-6-6-6--8--8--8--8-|

(01:49) verse 2nd part
G|-----Repeat x3-------------------|------------------------------------|
D|---------------------------------|------------------------------------|
A|--5-5---5----------------3-3-3-4-|-5--5-5--8---8--8-10--10-10-12---12-|
E|----------1-1--1-3-3---3---------|------------------------------------|

(02:00) Chorus
G|---------------------------------|
D|---------------------------------|
A|--5-5---5----------------3-3-3-4-| x3
E|----------1-1--1-3-3---3---------|


(02:08) Last riff
G|-----------------------------------------|---|
D|-----------------------------------------|---|
A|------------8---8--8-10--10-10-12--14-14-|-5-|
E|-10--10-10-------------------------------|---|
comments
We did not receive enough feedback on this tab! Please rate:
print report bad tab
1 2 3 4 5
I want to post or [tab]
guest
You may want to rate the tab now too:
select rating
Please do not post tabs as comments. Select "correction" instead!