Oops, an error
Loading. Please wait.

Stuff Is Messed Up Tab

version 2
version 2

Whole song

Interactive

10,057 views 15 this week
no commentswrite comment
1 2 3 4 5
excellent!
x 6
add to favorites
launch autoscroll
font size
0
reset
how to read this tab
guitar tuner
Tab Pro tools
  • play this tab
  • loop segment
  • change instrument
  • show fretboard
  • metronome
Autoscroll
slow
fast
+/-
esc
set tempo
stop
Contributor
The Offspring
Stuff Is Messed Up
Rise And Fall, Rage And Grace

tabbed by castellon (wrc307@gmail.com)


intro
e|----------------------------------------------------|
B|----------------------------------------------------|
G|-8~---8/----6-8~---8/-----8~---8/-----6-8~---8/-----|
D|-8~---8/----6-8~---8/-----8~---8/-----6-8~---8/-----|
A|-6~---6/----4-6~---6/-----6~---6/-----4-6~---6/-----|
E|----------------------------------------------------|

e|----------------------------------------------------|       
B|----------------------------------------------------|          
G|-6-8~---8/---6-8~---8/---6-8~---8/--6-8/------------|
D|-6-8~---8/---6-8~---8/---6-8~---8/--6-8/------------|
A|-4-6~---6/---4-6~---6/---4-6~---6/--4-6/------------|                
E|----------------------------------------------------|               

verse                         
e|------------------------------------------|
B|------------------------------------------|
G|-8-88-6---8-66-6---8-88-6------4-6--------|
D|-8-88-6---8-88-6---8-88-6--66--4-6--------|
A|-6-66-4---6-66-4---6-66-4--66--2-4--------|
E|---------------------------44-------------|
   
e|------------------------------------------|
B|---------------------------77-------------|
G|-8-88-6---8-66-6---8-88-6--66-44----------|
D|-8-88-6---8-88-6---8-88-6--44-44-6~-------|
A|-6-66-4---6-66-4---6-66-4-----22-6~-------|
E|---------------------------------4~-------|



Chorus:
e|------------------------|
B|------------------------|x2
G|-88-1111-----4-6--------| 
D|-88-1111-666-4-6--------|
A|-66--9-9-666-2-4--------|
E|---------444------------|
then...
e|------------------------------------|
B|---------------1111111111111111-----|
G|-88-66-----4-6-1010101010101010-6---| REPEAT
D|-88-66-666-4-6--8-8-8-8-8-8-8-8-6---|  THe
A|-66-44-666-2-4------------------4---|WHOLE cHORUS
E|-------444--------------------------|


Pre-Verse 2:
e|--------------------------|
B|--------------------------|
G|--8~---8/---6-8~---8/---6-| 
D|--8~---8/---6-6~---8/---6-|
A|--6~---6/---4-6~---6/---4-|
E|--------------------------|

Verse 2:
e|------------------------------------------|
B|------------------------------------------| X2
G|-8-88-6---8-66-6---8-88-6------4-6--------|
D|-8-88-6---8-88-6---8-88-6--66--4-6--------|
A|-6-66-4---6-66-4---6-66-4--66--2-4--------|
E|---------------------------44-------------|
    

e|------------------------------------------|
B|------------------------------------------|
G|-8-88-6---8-66-6---8-88-6------4-6--------|
D|-8-88-6---8-88-6---8-88-6--66--4-6--------|
A|-6-66-4---6-66-4---6-66-4--66--2-4--------|
E|---------------------------44-------------|
  |_______________ palm mute ______________|      

e|------------------------------------------|
B|---------------------------77-------------|
G|-8-88-6---8-66-6---8-88-6--66-44----------|
D|-8-88-6---8-88-6---8-88-6--44-44-6~-------|
A|-6-66-4---6-66-4---6-66-4-----22-6~-------|
E|---------------------------------4~-------|



Chorus:
e|------------------------|
B|------------------------|x2
G|-88-1111-----4-6--------| 
D|-88-1111-666-4-6--------|
A|-66--9-9-666-2-4--------|
E|---------444------------|
then...
e|------------------------------------|
B|---------------1111111111111111-----|
G|-88-66-----4-6-1010101010101010-6---| 
D|-88-66-666-4-6--8-8-8-8-8-8-8-8-6---|  
A|-66-44-666-2-4------------------4---|
E|-------444--------------------------|

e|------------------------|
B|------------------------|x2
G|-88-1111-----4-6--------| 
D|-88-1111-666-4-6--------|
A|-66--9-9-666-2-4--------|
E|---------444------------|

then...
e|------------------------------------|
B|---------------1111111111111111-----|
G|-88-66-----4-6-1010101010101010-----| 
D|-88-66-666-4-6--8-8-8-8-8-8-8-8-----|  
A|-66-44-666-2-4----------------------|
E|-------444--------------------------|






Bridge prt.1:
e|-------------------------------------------------------------------------|
B|--99999999-7-4-4/7-99999999-7-4/7-99~99~99~99-1111~1111~1111~1111--------|
G|--88888888-6-3-3/6-88888888-6-3/6-88~88~88~88-1010~1010~1010~1010--------|
D|--66666666-4-1-1/4-66666666-4-1/4-66~66~66~66--8-8-~8-8-~8-8-~8-8--------|
A|-------------------------------------------------------------------------|
E|-------------------------------------------------------------------------|

Bridge prt.2:
e|------------------|
B|------------------|
G|-88---88--88888---|X2
D|-88---88--88888---|
A|-66---66--66666---|
E|------------------|
            |_PM_| left hang 

Bridge prt.3:
e|--------------|
B|--------------|
G|--------------|
D|-6~------8~---|
A|-6~------8~---|
E|-4~------6~---|

Repeat Chorus:

Chorus:
e|------------------------|
B|------------------------|x2
G|-88-1111-----4-6--------| 
D|-88-1111-666-4-6--------|
A|-66--9-9-666-2-4--------|
E|---------444------------|
then...
e|------------------------------------|
B|---------------1111111111111111-----|
G|-88-66-----4-6-1010101010101010-6---| 
D|-88-66-666-4-6--8-8-8-8-8-8-8-8-6---|  
A|-66-44-666-2-4------------------4---|
E|-------444--------------------------|

e|------------------------|
B|------------------------|x2
G|-88-1111-----4-6--------| 
D|-88-1111-666-4-6--------|
A|-66--9-9-666-2-4--------|
E|---------444------------|

then...
e|----------------------------------------|
B|---------------1111111111111111---------|
G|-88-66-----4-6-1010101010101010--6~-88/-| 
D|-88-66-666-4-6--8-8-8-8-8-8-8-8--6~-66/-|  
A|-66-44-666-2-4-------------------4~-66/-|
E|-------444------------------------------|



Note: in the bridge pt 1 i only use 2 fingers, i mean: 
G 8-8
D 6-6 ....
comments
print report bad tab
I want to post or [tab]
guest
You may want to rate the tab now too:
select rating
Please do not post tabs as comments. Select "correction" instead!