Oops, an error
Loading. Please wait.
We have an official Take It Like A Man tab made by UG professional guitarists. Check out the tab »
×
403 views 1 this week
no commentswrite comment
1 2 3 4 5
1 last vote to show rating
add to favorites
×
Save as Personal and add changes to this tab that will be seen only by you. Learn more ›
×
You can save this tab as Personal to edit and correct it or add notes. All changes will be seen only by you. Learn more »
launch autoscroll
font size
0
reset
guitar tuner
backing track
0:00
0:00
edit
Autoscroll
slow
fast
+/-
esc
set tempo
stop
Author
+++++++++++++++++++++++++++++++++++++
| The Offspring- Take It Like A Man |
+++++++++++++++++++++++++++++++++++++

Tuning: EADG

Intro. x4
1.
G|-------------|
D|-------------|
A|-55555-3-----|
E|---------3-5-|

Verse
"When you won't go along.."
2.
G|-------------------------------------------------|
D|-------------------------------------------------|
A|-5-555-55-55-5-555-55-55-5-555-55-55-5-555-55-55-|
E|-------------------------------------------------|

"Heaven knows.. Heaven knows.."
3.
G|----------------------------------------|
D|----------------------------------------|
A|-10-10-10\6-6-6-55555-3-----55555-3-----|
E|------------------------3-5---------3-5-|

"Now don't get me wrong.."
4.
G|-------------------------------------------------|
D|-------------------------------------------------|
A|-5-555-55-55-5-555-55-55-5-555-55-55-5-555-55-55-|
E|-------------------------------------------------|

"When someone goes.."
5.
G|----------------------------------|
D|----------------------------------|
A|-10-10-10\6-6-6-55555-3-----55555-|
E|------------------------3-5-------|

Chorus
"Shut up..." x3
6.
G|-------------------|
D|-------------------|
A|-33/5-6-5-3/555555-|
E|-------------------|

"Cause' you need a little more.."
7.
G|-------------|
D|-8-8-8\7-7-7-|
A|-------------|
E|-------------|

Outro.
8.
G|---------------------------------------|
D|---------------------------------------|
A|-5~--------5~--------5~---------5~-----|
E|---------------------------------------|

Verse
"Maybe no one will say it.."
9.
G|-------------------------------------------------|
D|-------------------------------------------------|
A|-5-555-55-55-5-555-55-55-5-555-55-55-5-555-55-55-|
E|-------------------------------------------------|

"All I know.. All I know..."
10.
G|----------------------------------------|
D|----------------------------------------|
A|-10-10-10\6-6-6-55555-3-----55555-3-----|
E|------------------------3-5---------3-5-|

"Could you make a decision?."
11.
G|-------------------------------------------------|
D|-------------------------------------------------|
A|-5-555-55-55-5-555-55-55-5-555-55-55-5-555-55-55-|
E|-------------------------------------------------|

"Everyone knows.. Everyone knows.."
12.
G|----------------------------------|
D|----------------------------------|
A|-10-10-10\6-6-6-55555-3-----55555-|
E|------------------------3-5-------|

Chorus

1:41
13.
G|-------------------------------------------------|
D|-------------------------------------------------|
A|-5-555-55-55-5-555-55-55-5-555-55-55-5-555-55-55-|
E|-------------------------------------------------|

"Close your eyes.."
14.
G|------------------------------|
D|------------------------------|
A|-5x---5-6-5x---5-6-5x------5~-|
E|------------------------------|

15.
G|------------------------------------------------------|
D|------------------------------------------------------|
A|-3-333-33-33-3-333-33-33--55-44---------55-44---------|
E|-------------------------------66-5-3-5------66-5-3-5-|

16.
G|-------------------------------------------------|
D|-------------------------------------------------|
A|-3-333-33-33-3-333-33-33--55-44---------33-66-5x-|
E|-------------------------------66-5-3-5----------|

Chorus
And finish with one last verse ;)

This is a great soong.. And I hope my tab is correct :D
Please rate!

Lyrics
++++++++++++++++++++++++++++++++++++++++++

When you won't go along
Some will feel like you can't find your way
Heaven knows
Heaven knows I've seen it all before
Now don't get me wrong
I've seen many a life gone astray
When someone goes
All your bows won't make it any better so let it go

Shut up and take it like a man
You need us to get a life
For your own good we'll take you by the hand
'Cause you need a little more

Maybe no one will say it
Maybe no one's aware it goes on
All I know
All I know it's like going off the deep end
Could you make a decision?
Could you think for yourself and go on?
Everyone knows
Everyone knows you've got to fit into the mainstream so save your woes

Close your eyes
Look away now
Make believe while you can
So you'd best go along
Don't let on if you can't find your way
Many more
Many more do it for you
Because heaven knows
Heaven knows it's like playing with fire
Your life's a throw
++++++++++++++++++++++++++++++++++++++++++

+++++++++++++++++++++++++++++++++
| RaiLeff                       |
| Underground__Dora@hotmail.com |
+++++++++++++++++++++++++++++++++

            
            
Suggest correction
Creating personal tab
Creating personal tab
You can edit any tab online and save it as your Personal.

You can edit, replace or remove any tab part or add personal notes – all changes will be seen only by you.

Personal tabs can be accessed anytime from any device, even offline.
Learn more »
Give kudos to tab author, rate the tab!
1 2 3 4 5
comments
print report bad tab
guest
You may want to rate the tab now too:
select rating
Wanna post a correction for this tab? Suggest correction