Oops, an error
Loading. Please wait.
We have an official Takes Me Nowhere tab made by UG professional guitarists. Check out the tab »
×
2,900 views 3 this week
1 commentread comment
1 2 3 4 5
1 last vote to show rating
add to favorites
×
Save as Personal and add changes to this tab that will be seen only by you. Learn more ›
×
You can save this tab as Personal to edit and correct it or add notes. All changes will be seen only by you. Learn more »
launch autoscroll
font size
0
reset
guitar tuner
backing track
0:00
0:00
edit
Autoscroll
slow
fast
+/-
esc
set tempo
stop
Author
+++++++++++++++++++++++++++++++++++
| The Offspring- Takes Me Nowhere |
+++++++++++++++++++++++++++++++++++


"But today, if I change, and stop digging my own grave..."

Tuning: EADG


Verse
"All the friends I've lost..."
1.
G|-------------------------------------------------------------------------|
D|-------------------------------------------------------------------------|
A|----------00000000----------------------------00000000-------------------|
E|-22222222----------00000000-22222220-22222222----------00000000-22222222-|

Pre-Chorus
"I know how this will end..."
2.
G|---------------------------------------------------------------------------|
D|---------------------------------------------------------------------------|
A|-55555555\22222222-44444400----------55555555\22222222-44444444-4444-------|
E|----------------------------22222222---------------------------------0~-0~-|

"Takes me nowhere I cant I cant see a way out..."
3.
G|---------------------------------------------------------------------------------|
D|-----------0000-2222-----------0000-2222-----------0000-2222---------------------|
A|------0000----------------0000----------------0000-----------44444444-4444-------|
E|-2222----------------2222----------------2222------------------------------0~-0~-|

"When I go there I know I could start again..."
4.
G|---------------------------------------------------------------------------------|
D|-----------0000-2222-----------0000-2222-----------0000-2222---------------------|
A|------0000----------------0000----------------0000-----------44444444-4444-------|
E|-2222----------------2222----------------2222------------------------------0~-0~-|

Outro
5.
G|--------------------|
D|--------------------|
A|--------------------|
E|-2222222-02x--------|

Verse
"Open on this scene..."
6.
G|---------------------------------------------------------------------------|
D|--------------------------------------------------------22222222-----------|
A|----------00000000-----------------------------00000000--------------------|
E|-22222222----------00000000-2x--------22222222-------------------2x--------|

"As the rumor wind blows..."
7.
G|----------------------------------------------------------------------------|
D|---------------------22222222-44444444-2h4444444----------22222222----------|
A|-9\---------00000000-----------------------------00000000-------------------|
E|---22222222--------------------------------------------------------22222222-|

Pre-Chorus
"I know how this will end..."
8.
G|---------------------------------------------------------------------------|
D|---------------------------------------------------------------------------|
A|-55555555\22222222-44444400----------55555555\22222222-44444444-4444-------|
E|----------------------------22222222---------------------------------0~-0~-|

"Takes me nowhere I cant I cant see a way out..."
9.
G|---------------------------------------------------------------------------------|
D|-----------0000-2222-----------0000-2222-----------0000-2222---------------------|
A|------0000----------------0000----------------0000-----------44444444-4444-------|
E|-2222----------------2222----------------2222------------------------------0~-0~-|

"When I go there I know I could start again..."
10.
G|---------------------------------------------------------------------------------|
D|-----------0000-2222-----------0000-2222-----------0000-2222---------------------|
A|------0000----------------0000----------------0000-----------44444444-4444-------|
E|-2222----------------2222----------------2222------------------------------0~-0~-|

Outro
11.
G|--------------------|
D|--------------------|
A|--------------------|
E|-2222222-02x--------|

Bridge
12.
G|---------------------------------------------------------------------------|
D|---------------------------------------------------------------------------|
A|----------00000000-----------------------------00000000--------------------|
E|-22222222----------00000000-2x--------22222222----------00000000-2x--------|

13.
G|-------------------------------------------------------------------------|
D|-44444444----------22222222----------44444444----------22222222-44444444-|
A|----------00000000----------------------------00000000-------------------|
E|----------------------------22222222-------------------------------------|

Pre-Chorus
"But today if I change..."
14.
G|---------------------------------------------------------------------------|
D|---------------------------------------------------------------------------|
A|-55555555\22222222-44444400----------55555555\22222222-44444444-4444-------|
E|----------------------------22222222---------------------------------0~-0~-|

"Takes me nowhere I cant I cant see a way out..."
15.
G|---------------------------------------------------------------------------------|
D|-----------0000-2222-----------0000-2222-----------0000-2222---------------------|
A|------0000----------------0000----------------0000-----------44444444-4444-------|
E|-2222----------------2222----------------2222------------------------------0~-0~-|

"When I go there I know I could start again..."
16.
G|---------------------------------------------------------------------------------|
D|-----------0000-2222-----------0000-2222-----------0000-2222---------------------|
A|------0000----------------0000----------------0000-----------44444444-4444-------|
E|-2222----------------2222----------------2222------------------------------0~-0~-|

Outro
17.
G|--------------------|
D|--------------------|
A|--------------------|
E|-2222222-02x--------|



Lyrics:


When the day begins
All the guilt sinks in
And I look on the wreckage of the night
Though I try to break free
The cycle breaks me
Am I ever gonna see the light?

All the friends I’ve lost
And the pain I’ve caused
Have never been enough just to make me stop
The lines I draw to look at myself
Are turning into somebody else

I know how this will end
But I’m starting up again
Turned around, inside out
Cause this way

Takes me nowhere I can’t can’t see a way out
Takes me nowhere I can’t can’t see a way out
Takes me nowhere I can’t can’t see a way out
It beats me up

When I go there I know I could start again
When I go there Oh no, here we go again
Takes me nowhere Oh no, here we go again
It beats me up

Open on this scene
A familiar dream
Of you telling me what I already know
Though the truth seems near
You can’t get there from here
But you sure know where you’re gonna go

As the rumor wind blows
My infamy grows
Seeing friends above
And I hit another low
The picture I paint to look at myself
Is turning into somebody else

But today, if I change
And stop digging my own grave
I will try, to set things right
Cause this way




+++++++++++++++++++++++++++++++++
| RaiLeff                       |
| Underground__Dora@Hotmail.Com |
+++++++++++++++++++++++++++++++++
Suggest correction
Creating personal tab
Creating personal tab
You can edit any tab online and save it as your Personal.

You can edit, replace or remove any tab part or add personal notes – all changes will be seen only by you.

Personal tabs can be accessed anytime from any device, even offline.
Learn more »
Give kudos to tab author, rate the tab!
1 2 3 4 5
comments
print report bad tab
1 comment total.
0 reply
Billy M 429 Aug 05, 2008 10:20 AM

great tab. This song is awesome and even more fun to play.

guest
You may want to rate the tab now too:
select rating
Wanna post a correction for this tab? Suggest correction