Oops, an error
Loading. Please wait.

Takes Me Nowhere Tab

version 2
version 2

Whole song

Interactive

10,170 views 12 this week
2 commentsread comments
1 2 3 4 5
excellent!
x 11
add to favorites
launch autoscroll
font size
0
reset
how to read this tab
guitar tuner
Tab Pro tools
  • play this tab
  • loop segment
  • change instrument
  • show fretboard
  • metronome
×
Best way to learn
"Takes Me Nowhere"
Autoscroll
slow
fast
+/-
esc
set tempo
stop
Contributor
----------------------------------------------------------------------------
                                       The Offspring - Takes Me Nowhere
----------------------------------------------------------------------------
Tabbed by: Clayton Pennington
Email: offspring_punk08@yahoo.com

Tuning: Standard

Verse x4 (slightly cleaner tone) First 2 times only play F#5 once
e|--------------------------------------------------------|
B|--------------------------------------------------------|
G|--------------------------------------------------------|
D|-44444444-77777777-22222222-44444444--------------------|
A|-44444444-77777777-22222222-44444444--------------------|
E|-22222222-55555555-00000000-22222222--------------------|

Pre Chorus (more distortion)
e|------------------------------------------------------------------------|
B|------------------------------------------------------------------------|
G|-7-777777-4-444444-6-6666------------7-777777-4-444444-6-6666666666-----|
D|-7-777777-4-444444-6-6666-2-4-444444-7-777777-4-444444-6-6666666666-2-2-|
A|-5-555555-2-222222-4-4444-2-4-444444-5-555555-2-222222-4-4444444444-2-2-|
E|--------------------------0-2-222222--------------------------------0-0-|

Chorus x2
e|----------------------------------------------------------------------|
B|----------------------------------------------------------------------|
G|---------777-99-9---------777-99-9---------777-99-9-666666666666------|
D|-4-477-7-777-99-9-4-477-7-777-99-9-4-477-7-777-99-9-666666666666-2-2--|
A|-4-477-7-555-77-7-4-477-7-555-77-7-4-477-7-555-77-7-444444444444-2-2--|
E|-2-255-5----------2-255-5----------2-255-5-----------------------0-0--|

e|-----------|
B|-----------|
G|-----------|
D|-444444444-|
A|-444444444-|
E|-222222222-|

Verse x2 (slightly cleaner tone)
e|--------------------------------------------------------|
B|--------------------------------------------------------|
G|--------------------------------------------------------|
D|-44444444-77777777-22222222-44444444--------------------|
A|-44444444-77777777-22222222-44444444--------------------|
E|-22222222-55555555-00000000-22222222--------------------|

Verse pt.2 x2
e|-22222222-00000000-00000000-22222222--------------------|
B|-22222222-22222222-00000000-22222222--------------------|
G|--------------------------------------------------------|
D|--------------------------------------------------------|
A|--------------------------------------------------------|
E|--------------------------------------------------------|

Pre Chorus (more distortion)
e|------------------------------------------------------------------------|
B|------------------------------------------------------------------------|
G|-7-777777-4-444444-6-6666------------7-777777-4-444444-6-6666666666-----|
D|-7-777777-4-444444-6-6666-2-4-444444-7-777777-4-444444-6-6666666666-2-2-|
A|-5-555555-2-222222-4-4444-2-4-444444-5-555555-2-222222-4-4444444444-2-2-|
E|--------------------------0-2-222222--------------------------------0-0-|

Chorus x2
e|----------------------------------------------------------------------|
B|----------------------------------------------------------------------|
G|---------777-99-9---------777-99-9---------777-99-9-666666666666------|
D|-4-477-7-777-99-9-4-477-7-777-99-9-4-477-7-777-99-9-666666666666-2-2--|
A|-4-477-7-555-77-7-4-477-7-555-77-7-4-477-7-555-77-7-444444444444-2-2--|
E|-2-255-5----------2-255-5----------2-255-5-----------------------0-0--|

e|-----------|
B|-----------|
G|-----------|
D|-444444444-|
A|-444444444-|
E|-222222222-|

Verse pt.2 x2
e|-22222222-00000000-00000000-22222222--------------------|
B|-22222222-22222222-00000000-22222222--------------------|
G|--------------------------------------------------------|
D|--------------------------------------------------------|
A|--------------------------------------------------------|
E|--------------------------------------------------------|

Solo
e|-2-4-5~-5-4-5~-5/7-5-4~-4/5-4-2~~-2-4-5~-5-4-5~-5/7-5-4~-4-0-2-|
B|---------------------------------------------------------------|
G|---------------------------------------------------------------|
D|---------------------------------------------------------------|
A|---------------------------------------------------------------|
E|---------------------------------------------------------------|

Pre Chorus 
e|------------------------------------------------------------------------|
B|------------------------------------------------------------------------|
G|-7-777777-4-444444-6-6666------------7-777777-4-444444-6-6666666666-----|
D|-7-777777-4-444444-6-6666-2-4-444444-7-777777-4-444444-6-6666666666-2-2-|
A|-5-555555-2-222222-4-4444-2-4-444444-5-555555-2-222222-4-4444444444-2-2-|
E|--------------------------0-2-222222--------------------------------0-0-|

Chorus x2
e|----------------------------------------------------------------------|
B|----------------------------------------------------------------------|
G|---------777-99-9---------777-99-9---------777-99-9-666666666666------|
D|-4-477-7-777-99-9-4-477-7-777-99-9-4-477-7-777-99-9-666666666666-2-2--|
A|-4-477-7-555-77-7-4-477-7-555-77-7-4-477-7-555-77-7-444444444444-2-2--|
E|-2-255-5----------2-255-5----------2-255-5-----------------------0-0--|

e|-----------|
B|-----------|
G|-----------|
D|-444444444-|
A|-444444444-|
E|-222222222-|

| /  slide up
| \  slide down
| h  hammer-on
| p  pull-off
| ~  vibrato
| +  harmonic
| x  Mute note
============================================================================
comments
print report bad tab
2 comments total.
0 reply
AdamS wrote on June 26 2008, 12:02 pm

4444
4444
4444 try to play that, ****y sound

0 reply
offspring_punk wrote on July 1 2008, 02:56 pm

OH YEAH wow...That was a complete typo. I didn't mean to do that. Damn thanks for pointing that out.

I want to post or [tab]
guest
You may want to rate the tab now too:
select rating
Please do not post tabs as comments. Select "correction" instead!