Oops, an error
Loading. Please wait.

The End Of The Line Bass Tab

version 1
version 1

Whole song

Interactive

602 views 1 this week
no commentswrite comment
1 2 3 4 5
please rate
add to favorites
launch autoscroll
font size
0
reset
guitar tuner
Tab Pro tools
  • play this tab
  • loop segment
  • change instrument
  • show fretboard
  • metronome
×
Best way to learn
"The End Of The Line"
Autoscroll
slow
fast
+/-
esc
set tempo
stop
Difficulty
novice
Song: The End of the Line
Band: The Offspring
Album: Americana
Year: 1999
Genre: Punk Rock
Tuning: Standard (GDAE)

Intro
G|-------------------|-------------------|
D|-------------------|-------------------|
A|-------5---5-0-2-0-|-------5---5-7-7-7-|
E|-------------------|-------------------|

Verse
|----------------|----------------|----------------|----------------|
|----------------|----------------|----------------|----------------|
|0-0-0-0-0-0-0-0-|0-0-0-0-0-0-0-0-|----------------|----------------|
|----------------|----------------|1-1-1-1-1-1-1-1-|1-1-1-1-1-1-1-1-|

|----------------|----------------|----------------|----------------|
|----------------|----------------|----------------|----------------|
|3-3-3-3-3-3-3-3-|3-3-3-3-3-3-3-3-|----------------|----------------|
|----------------|----------------|3-3-3-3-3-3-3-3-|0-0-0-0-0-0-0-0-|

Chorus
|----------------|----------------|----------------|----------------|
|----------------|----------------|----------------|----------------|
|0-0-0-0-0-0-0-0-|0-0-0-0-0-0-0-0-|----------------|----------------|
|----------------|----------------|3-3-3-3-3-3-3-3-|0-0-0-0-0-0-0-0-|

Outro
|----------------|
|----------------|
|0---------------|
|----------------|

Structure
Intro x2
Verse x4
Chorus x4
Verse x4
Chorus x4
Outro x1
Bridge: Bass doesn't play anything
Verse x4
Chorus x4
Outro x1

Contact me at: bercowich@hotmail.com
comments
We did not receive enough feedback on this tab! Please rate:
print report bad tab
1 2 3 4 5
I want to post or [tab]
guest
You may want to rate the tab now too:
select rating
Please do not post tabs as comments. Select "correction" instead!