Oops, an error
Loading. Please wait.

The Future Is Now Bass Tab

version 1
version 1

Whole song

Interactive

2,819 views 6 this week
no commentswrite comment
1 2 3 4 5
worth learning
x 5
add to favorites
launch autoscroll
font size
0
reset
guitar tuner
Tab Pro tools
  • play this tab
  • loop segment
  • change instrument
  • show fretboard
  • metronome
×
Best way to learn
"The Future Is Now"
Autoscroll
slow
fast
+/-
esc
set tempo
stop
Contributor
Difficulty
novice
----------------------------------------------------|
                 The Future is Now - The Offspring--|
Tabbed by: Philipp Schulz
E-mail: philipp2schulz8@yahoo.de

Tuning: Standard
Intro/Verse: Play it as often as you need
G|------------------------------|
D|------------------------------|
A|-8-x16-------4-x16------6-x8--|
E|-------4 x16------6-x8--------|
PreChorus:
G|-------------|
D|-------------| x2
A|-4-x16-6x16--|
E|-------------|
Chorus: As often you need
G|---------------------------|
D|---------------------------|
A|-10-x16-------4-x16-3-x16--|
E|--------4-x16--------------|
Post Chorus
G|---------------------------------------------------------------------------------|
D|---------------------------------------------------------------------------------|
A|-8-x10---------------------------------------------------------------------------|
E|---------------------------------------------------------------------------------|

I think this is everything you need. :D

| /  slide up
| \  slide down
| h  hammer-on
| p  pull-off
| ~  vibrato
| +  harmonic
| x  Mute note
===============================================================================
comments
print report bad tab
I want to post or [tab]
guest
You may want to rate the tab now too:
select rating
Please do not post tabs as comments. Select "correction" instead!