Oops, an error
Loading. Please wait.

The Future Is Now Tab

version 1
version 1

Solo

Whole song

Interactive

23,913 views 84 this week
8 commentsread comments
1 2 3 4 5
excellent!
x 17
add to favorites
launch autoscroll
font size
0
reset
how to read this tab
guitar tuner
Tab Pro tools
  • play this tab
  • loop segment
  • change instrument
  • show fretboard
  • metronome
Autoscroll
slow
fast
+/-
esc
set tempo
stop
Contributor
-------------------------------------------------------------------------------
                             The Future Is Now - The Offspring
-------------------------------------------------------------------------------
Tabbed by: Brian Wells
E-mail:

Tuning: Standard
  Intro
e|---------------------------------------------------------------------------|
B|-8-8/9-8\6-6--8-8/9-8\6-4--8-8/9-8\6-6--6-6--6-6-6/9\6-4-------------------|
G|---------------------------------------------------------------------------|
D|---------------------------------------------------------------------------|
A|---------------------------------------------------------------------------|
E|---------------------------------------------------------------------------|

e|---------------------------------------------------------------------------|
B|---------------------------------------------------------------------------|
G|-10-----13-----6----------8------------------------------------------------|
D|-10-x16-13-x16-6-x16-8-x8-8-x8---------------------------------------------|x2
A|-8------11-----4-----8----6------------------------------------------------|
E|---------------------6-----------------------------------------------------|

Strumming Pattern: D,U,U,U,U,U,U,D,U,D
e|---------------------------------------------------------------------------|
B|---------------------------------------------------------------------------|
G|--10-10-10-10-10-10-10-10-10-10--------------------------------------------|
D|--10-10-10-10-10-10-10-10-10-10--------------------------------------------|x2
A|---8--8--8--8--8--8--8--8--8--8--------------------------------------------|
E|---------------------------------------------------------------------------|

  Verse Filler During Bass Part At 0:40 & 0:48
e|-8---------------|
B|---8h9-----------|
G|-----------------|
D|-----------------|
A|-----------------|
E|-----------------|


Pre Chorus (0:54-1:02)
e|---------------------------------------------------------------------------|
B|---------------------------------------------------------------------------|
G|-6-6-6-6-6-6-6-6-6-6-6-6-6-6-6-6-8-8-8-8-8-8-8-8-8-8-8-8-8-8-8-8-----------|
D|-6-6-6-6-6-6-6-6-6-6-6-6-6-6-6-6-8-8-8-8-8-8-8-8-8-8-8-8-8-8-8-8-----------|
A|-4-4-4-4-4-4-4-4-4-4-4-4-4-4-4-4-6-6-6-6-6-6-6-6-6-6-6-6-6-6-6-6-----------|
E|---------------------------------------------------------------------------|
     x x x x x x x x x x x x x x x   x x x x x x x x x x x x x x x

e|---------------------------------------------------------------------------|
B|---------------------------------------------------------------------------|
G|-6-6-6-6-6-6-6-6-6-6-6-6-6-6-6-6-8-8-8-8-8-8-8-8-8-8-8-8-8-8-8-8-----------|
D|-6-6-6-6-6-6-6-6-6-6-6-6-6-6-6-6-8-8-8-8-8-8-8-8-8-8-8-8-8-8-8-8-----------|
A|-4-4-4-4-4-4-4-4-4-4-4-4-4-4-4-4-6-6-6-6-6-6-6-6-6-6-6-6-6-6-6-6-----------|
E|---------------------------------------------------------------------------|
     x x x x x x x x x x x x x x x


Chorus
e|---------------------------------------------------------------------------|
B|---------------------------------------------------------------------------|
G|-10-----------6-----5------10-----------6-----5-5-5-5-5-5-5-5--------------|
D|-10-x16-6-----6-x16-5-x16--10-x16-6-----6-x16-5-5-5-5-5-5-5-5--------------|
A|--8-----6-x16-4-----3-------8-----6-x16-4-----3-3-3-3-3-3-3-3--------------|
E|--------4-------------------------4----------------------------------------|
                                                x x x x x x x

        Post Chorus
     Strumming Pattern: D,U,U,U,U,U,U,D,U,D
e|---------------------------------------------------------------------------|
B|---------------------------------------------------------------------------|
G|--10-10-10-10-10-10-10-10-10-10--------------------------------------------|
D|--10-10-10-10-10-10-10-10-10-10--------------------------------------------|x2
A|---8--8--8--8--8--8--8--8--8--8--------------------------------------------|
E|---------------------------------------------------------------------------|

  Verse Filler At 1:30 & 1:39
e|-------------8----|
B|------9--------8h9|
G|-10p8-------------|
D|------------------|
A|------------------|
E|------------------|

Pre Chorus (1:45-1:52)
e|---------------------------------------------------------------------------|
B|---------------------------------------------------------------------------|
G|-6-6-6-6-6-6-6-6-6-6-6-6-6-6-6-6-8-8-8-8-8-8-8-8-8-8-8-8-8-8-8-8-----------|
D|-6-6-6-6-6-6-6-6-6-6-6-6-6-6-6-6-8-8-8-8-8-8-8-8-8-8-8-8-8-8-8-8-----------|
A|-4-4-4-4-4-4-4-4-4-4-4-4-4-4-4-4-6-6-6-6-6-6-6-6-6-6-6-6-6-6-6-6-----------|
E|---------------------------------------------------------------------------|
     x x x x x x x x x x x x x x x   x x x x x x x x x x x x x x x

e|---------------------------------------------------------------------------|
B|---------------------------------------------------------------------------|
G|-6-6-6-6-6-6-6-6-6-6-6-6-6-6-6-6-8-8-8-8-8-8-8-8-8-8-8-8-8-8-8-8-----------|
D|-6-6-6-6-6-6-6-6-6-6-6-6-6-6-6-6-8-8-8-8-8-8-8-8-8-8-8-8-8-8-8-8-----------|
A|-4-4-4-4-4-4-4-4-4-4-4-4-4-4-4-4-6-6-6-6-6-6-6-6-6-6-6-6-6-6-6-6-----------|
E|---------------------------------------------------------------------------|
     x x x x x x x x x x x x x x x

Chorus
e|---------------------------------------------------------------------------|
B|---------------------------------------------------------------------------|
G|10-----------6-----5-----10-----------6-----5-5-5-5-5-5-5-5-5-5-5-5-5-5-5-5|
D|10-x16-6-----6-x16-5-x16-10-x16-6-----6-x16-5-5-5-5-5-5-5-5-5-5-5-5-5-5-5-5|
A|-8-----6-x16-4-----3------8-----6-x16-4-----3-3-3-3-3-3-3-3-3-3-3-3-3-3-3-3|
E|-------4------------------------4------------------------------------------|
                                              x x x x x x x x x x x x x x x x

Bridge
e|---------------------------------------------------------------------------|
B|---------------------------------------------------------------------------|
G|-6-----8-----10-10-x-x-x-10-10-x-x-x-10-10-x-x-x-10-10-x-x-x---------------|
D|-6-x16-8-x16-10-10-x-x-x-10-10-x-x-x-10-10-x-x-x-10-10-x-x-x---------------|
A|-4-----6------8--8-x-x-x--8--8-x-x-x--8--8-x-x-x--8--8-x-x-x---------------|
E|---------------------------------------------------------------------------|


e|---------------------------------------------------------------------------|
B|---------------------------------------------------------------------------|
G|-6-----8-----10-10-10-10-10-10-10-10-10-10-10-10-10-10-10-10---------------|
D|-6-x16-8-x16-10-10-10-10-10-10-10-10-10-10-10-10-10-10-10-10---------------|
A|-4-----6------8--8--8--8--8--8--8--8--8--8--8--8--8--8--8--8---------------|
E|---------------------------------------------------------------------------|

Solo (Guitar 1)
e|---------------------------------------------------------------------------|
B|---------------------------------------------------------------------------|
G|---------------------------------------------------------------------------|
D|---------------------------------------------------------------------------|
A|---------------------------------------------------------------------------|
E|-1---3-4---8-9-8-9-13-12br-9br-8-------------------------------------------|

  Use strumming pattern from post chorus (Guitar 2)
e|---------------------------------------------------------------------------|
B|---------------------------------------------------------------------------|
G|10-----------6-----5-------------------------------------------------------|
D|10-x10-6-----6-x10-5-x10---------------------------------------------------|x2
A|-8-----6-x10-4-----3-------------------------------------------------------|
E|-------4-------------------------------------------------------------------|

e|---------------------------------------------------------------------------|
B|---------------------------------------------------------------------------|
G|10-----------6-----5-5-x-x-x-5-5-x-x-x-5-5-x-x-x-5-5-x-x-x-----------------|
D|10-x10-6-----6-x10-5-5-x-x-x-5-5-x-x-x-5-5-x-x-x-5-5-x-x-x-----------------|
A|-8-----6-x10-4-----3-3-x-x-x-3-3-x-x-x-3-3-x-x-x-3-3-x-x-x-----------------|
E|-------4-------------------------------------------------------------------|

During the piano part there is some guitar in the back but hard to hear. The first part 
of it at 3:10 goes like this
e|------8------|
B|-----8-------|
G|---10--------|
D|-10----------|
A|-------------|
E|-------------|

  After Piano Part
e|---------------------------------------------------------------------------|
B|---------------------------------------------------------------------------|
G|--8-8-8-8-8-8-8-8----------------------------------------------------------|
D|--8-8-8-8-8-8-8-8----------------------------------------------------------|
A|--6-6-6-6-6-6-6-6----------------------------------------------------------|
E|---------------------------------------------------------------------------|

Chorus
e|---------------------------------------------------------------------------|
B|---------------------------------------------------------------------------|
G|-10-----------6-----5------10-----------6-----5-5-5-5-5-5-5-5--------------|
D|-10-x16-6-----6-x16-5-x16--10-x16-6-----6-x16-5-5-5-5-5-5-5-5--------------|
A|--8-----6-x16-4-----3-------8-----6-x16-4-----3-3-3-3-3-3-3-3--------------|
E|--------4-------------------------4----------------------------------------|
                                                x x x x x x x

e|--------------------------------|
B|--------------------------------|
G|10-----------6-----5------------|
D|10-x16-6-----6-x16-5-x16--------|
A|-8-----6-x16-4-----3------------|
E|-------4------------------------|

e|---------------------------------------------------------------------------|
B|---------------------------------------------------------------------------|
G|10-10-x-x-x-10-10-x-x-x-10-10-x-x-x-10-10-x-x-x-10-------------------------|
D|10-10-x-x-x-10-10-x-x-x-10-10-x-x-x-10-10-x-x-x-10-------------------------|
A|-8--8-x-x-x--8--8-x-x-x--8--8-x-x-x--8--8-x-x-x--8-------------------------|
E|---------------------------------------------------------------------------|

************************************

| /   slide up
| \   slide down
| h   hammer-on
| p   pull-off
| ~   vibrato
| +   harmonic
| x   Mute note
| b   Bend
| pb  Pre-bend
| br  Bend release
| pbr Pre-bend release
| brb Bend release bend

************************************
comments
print report bad tab
8 comments total. Showing first comments.
0 reply
Ivan_Sushik wrote on July 15 2012, 05:09 pm

Can you give us the chords please?

+1 reply
Messj wrote on August 12 2012, 02:19 am

You have to put that tab in guitar pro5? This song is amazing. Congratulations!

0 reply
Jarda87 wrote on August 23 2012, 05:14 pm

I´m sure that the second chord in the intro riff is G#5, not the 11-13-13.

I want to post or [tab]
guest
You may want to rate the tab now too:
select rating
Please do not post tabs as comments. Select "correction" instead!