Oops, an error
Loading. Please wait.

The Kids Arent Alright Tab

15,659 views 21 this week
3 commentsread comments
1 2 3 4 5
accurate
x 4
add to favorites
launch autoscroll
font size
0
reset
how to read this tab
guitar tuner
Tab Pro tools
  • play this tab
  • loop segment
  • change instrument
  • show fretboard
  • metronome
×
Best way to learn
"The Kids Arent Alright"
Autoscroll
slow
fast
+/-
esc
set tempo
stop
Contributor
-------------------------------------------------------------------------------
                             The kids aren't alright - The offspring
-------------------------------------------------------------------------------
Tabbed by: mattayV2
Email: cool_boy_bomber@hotmail.com

Tuning: STANDARD

Key:
~ = vibrato
^ = Bend string (most bends are full bends)
h = hammer-on
p = pull-off
/ \ = slide up or down
* = Palm mute

GTR 1 = NOODLES
GTR 2 = DEXTER

Intro
Guitar 1
e|------------------------------------------------------|
B|------------------------------------------------------|
G|-----6-----6-----6-5-5-5-5h6------6-----6-5-5-5-5h6---|
D|-8-8-8-8-8-8-8-8-8-8-8-8-8-8--4-4-4-4-4-4-4-4-4-4-4---|
A|------------------------------------------------------|
E|------------------------------------------------------|
   * *   * *   * *              * *   * *                     
E|------------------------------------------------|
B|------------------------------------------------|
G|------------------------------------------------|
D|-----5---5-----5-5-5-5h6---8-8--6--5-5-5-5h6----|
A|-6-6-6-6-6-6-6-6-6-6-6-6---6-6--6--6-6-6-6-6----|
E|------------------------------------------------|
   * *   *   * *

play this after guitar 1 plays this^ twice

Guitar 2

e|----------------------------------------------------------|
B|----------------------------------------------------------|
G|-----------------------------6----------------------------|
D|---8------------4------------6-LET-RING---6---------------|
A|---8-LET-RING---4-LET-RING---4------------6-LET-RING------|
E|---6------------2-------------------------4---------------|

Post intro
Guitar 2

e|-----------------------------------------------------------|
B|-----------------------------------------------------------|
G|-----------------------------------------------------------|
D|-----------------------------------------------------------|X2
A|-1-1-3-4-----3-4---------3-3-3-4-4-4-4/6-4-3-4-------------|
E|---------2-2-----3-3-3/6-----------------------------------|

Guitar 1
Post intro
e|-------------------------------------------------------------------------------|
B|-------------------------------------------------------------------------------|
G|-------------------11-11-11-11-11-11-11-11--6-6-6-6-6-6-6-6--------------------|
D|--8-8-8-8-8-8-8-8--11-11-11-11-11-11-11-11--6-6-6-6-6-6-6-6--6-6-6-6-6-6-6-6---|X2
A|--8-8-8-8-8-8-8-8--9--9--9--9--9--9--9--9---4-4-4-4-4-4-4-4--6-6-6-6-6-6-6-6---|
E|--6-6-6-6-6-6-6-6--------------------------------------------4-4-4-4-4-4-4-4---|

Both Guitars or 1 if wanted
Verse
e|----------------------------------------------------------------------------------------------------------------------|
B|----------------------------------------------------------------------------------------------------------------------|
G|------------------------------------------------------------6-------------------------6-------------------------------|
D|--8-------------------------8--4-------------------------4--6-6-6-6-6-6-6-6-6-6-6-6-6-6--6-------------------------6--|X2
A|--8-8-8-8-8-8-8-8-8-8-8-8-8-8--4-4-4-4-4-4-4-4-4-4-4-4-4-4--4-4-4-4-4-4-4-4-4-4-4-4-4-4--6-6-6-6-6-6-6-6-6-6-6-6-6-6--|
E|--6-6-6-6-6-6-6-6-6-6-6-6-6-6--2-2-2-2-2-2-2-2-2-2-2-2-2-2-------------------------------4-4-4-4-4-4-4-4-4-4-4-4-4-4--|
      * * * * * * * * * * * *      * * * * * * * * * * * *      * * * * * * * * * * * *      * * * * * * * * * * * *

Both Guitars
Chorus
e|-------------------------------------------------------------------------------|
B|-------------------------------------------------------------------------------|
G|-------------------11-11-11-11-11-11-11-11--6-6-6-6-6-6-6-6--------------------|
D|--8-8-8-8-8-8-8-8--11-11-11-11-11-11-11-11--6-6-6-6-6-6-6-6--6-6-6-6-6-6-6-6---|X2
A|--8-8-8-8-8-8-8-8--9--9--9--9--9--9--9--9---4-4-4-4-4-4-4-4--6-6-6-6-6-6-6-6---|
E|--6-6-6-6-6-6-6-6--------------------------------------------4-4-4-4-4-4-4-4---|

Post intro
Guitar 2
e|---------------------------------------------------------------|
B|---------------------------------------------------------------|
G|---------------------------------------------------------------|
D|---------------------------------------------------------------|X2
A|-1-1-3-4-----3-4-------------3-3-3-4-4-4-4/6-4-3-4-------------|
E|---------2-2-----3-3-3/6-6-6-----------------------------------|

Guitar 1
Post intro
e|-------------------------------------------------------------------------------|
B|-------------------------------------------------------------------------------|
G|-------------------11-11-11-11-11-11-11-11--6-6-6-6-6-6-6-6--------------------|
D|--8-8-8-8-8-8-8-8--11-11-11-11-11-11-11-11--6-6-6-6-6-6-6-6--6-6-6-6-6-6-6-6---|X2
A|--8-8-8-8-8-8-8-8--9--9--9--9--9--9--9--9---4-4-4-4-4-4-4-4--6-6-6-6-6-6-6-6---|
E|--6-6-6-6-6-6-6-6--------------------------------------------4-4-4-4-4-4-4-4---|

Both Guitars or 1 if wanted
Verse
e|--------------------------------------------------------------------------------------------------------------------|
B|--------------------------------------------------------------------------------------------------------------------|
G|----------------------------------------------------------6-------------------------6-------------------------------|
D|--8-------------------------8--4-----------------------4--6-6-6-6-6-6-6-6-6-6-6-6-6-6--6-------------------------6--|X2  
A|--8-8-8-8-8-8-8-8-8-8-8-8-8-8--4-4-4-4-4-4-4-4-4-4-4-4-4--4-4-4-4-4-4-4-4-4-4-4-4-4-4--6-6-6-6-6-6-6-6-6-6-6-6-6-6--|
E|--6-6-6-6-6-6-6-6-6-6-6-6-6-6--2-2-2-2-2-2-2-2-2-2-2-2-2-------------------------------4-4-4-4-4-4-4-4-4-4-4-4-4-4--|
      * * * * * * * * * * * *    * * * * * * * * * * * *      * * * * * * * * * * * *      * * * * * * * * * * * *

Chorus
e|-------------------------------------------------------------------------------|
B|-------------------------------------------------------------------------------|
G|-------------------11-11-11-11-11-11-11-11--6-6-6-6-6-6-6-6--------------------|
D|--8-8-8-8-8-8-8-8--11-11-11-11-11-11-11-11--6-6-6-6-6-6-6-6--6-6-6-6-6-6-6-6---|X2
A|--8-8-8-8-8-8-8-8--9--9--9--9--9--9--9--9---4-4-4-4-4-4-4-4--6-6-6-6-6-6-6-6---|
E|--6-6-6-6-6-6-6-6--------------------------------------------4-4-4-4-4-4-4-4---|


Guitar 1
SOLO                                 Full Bends
e|------------------------------------------------------16------------------------|
B|-------------------------------------12^-14^----18^-------16^-16-14-16----------|
G|-----------------------------11^-13^--------------------------------------------|
D|--------------------------------------------------------------------------------|
A|--------------------------------------------------------------------------------|
E|--13/--6-6\8-8\9-9\13-13\15-----------------------------------------------------|

e|--13--13-13-13--13-13-13--13-13-13-------------------------------------------|
B|--16^-------16^-------16^-----------16h14----14h16-14-14-----14/9------------|
G|------------------------------------------15-------------15--------11^-11-11-|
D|-----------------------------------------------------------------------------|
A|-----------------------------------------------------------------------------|
E|-----------------------------------------------------------------------------|
                                     Full bends
e|-----9-9-9--------------------------------------------------------------|
B|---9-------9-------------------14-14--16^-16^-16^-16^-16-14-16^-16~-----|
G|-------------10/11/13-13-13-13------------------------------------------|
D|------------------------------------------------------------------------|
A|------------------------------------------------------------------------|
E|------------------------------------------------------------------------|

SOLO
Guitar 2

e|-------------------------------------------------------------------------------|
B|-------------------------------------------------------------------------------|
G|-------------------11-11-11-11-11-11-11-11--6-6-6-6-6-6-6-6--------------------|
D|--8-8-8-8-8-8-8-8--11-11-11-11-11-11-11-11--6-6-6-6-6-6-6-6--6-6-6-6-6-6-6-6---|X2
A|--8-8-8-8-8-8-8-8--9--9--9--9--9--9--9--9---4-4-4-4-4-4-4-4--6-6-6-6-6-6-6-6---|
E|--6-6-6-6-6-6-6-6--------------------------------------------4-4-4-4-4-4-4-4---|

Guitar 1
Outro chorus
e|-------------------------------------------------------------------------------|
B|-------------------------------------------------------------------------------|
G|-------------------11-11-11-11-11-11-11-11--6-6-6-6-6-6-6-6--------------------|
D|--8-8-8-8-8-8-8-8--11-11-11-11-11-11-11-11--6-6-6-6-6-6-6-6--6-6-6-6-6-6-6-6---|X2
A|--8-8-8-8-8-8-8-8--9--9--9--9--9--9--9--9---4-4-4-4-4-4-4-4--6-6-6-6-6-6-6-6---|
E|--6-6-6-6-6-6-6-6--------------------------------------------4-4-4-4-4-4-4-4---|

Guitar 2                    ^Play this at the same time^
e|------------------------------------------------------------------------------------|
B|--11^--11^--11^--11^--11^--11^--11^--11^----11-9-11-9-11-9-11-9-11-9-11-9-11-9-11-9-|
G|------------------------------------------------------------------------------------|x2
D|------------------------------------------------------------------------------------|
A|------------------------------------------------------------------------------------|
E|------------------------------------------------------------------------------------|

Guitar 2
OUTRO
e|------------------------------------|
B|--11-9-11-9-11-9-11-9-11-9-11-9-----|
G|------------------------------------|
D|---------------------------------8--|
A|---------------------------------8--|
E|---------------------------------6--|
comments
print report bad tab
3 comments total.
0 reply
StJimmy88 wrote on March 29 2007, 09:43 am

the intro is a little off......instead of:
|-------------------------------------------------
|-------------------------------------------------
|-------6-6-6-6-6-6-6-6-5-5-5-5h6-----------------
|-------8-8-8-8-8-8-8-8-8-8-8-8h8--....and so on--
|-------------------------------------------------
|-------------------------------------------------

it should be:

|-------------------------------------------------
|-------------------------------------------------
|------6-6-5-555-5-5h6-66------6-6-5-555-5h6-66---
|--8-8-8-8-8-888-8-8-8-88--4-4-4-4-4-444-4-4-44---
|-------------------------------------------------
|-------------------------------------------------

|-------------------------------------------------
|-------------------------------------------------
|-------6-6-5-555-5h6-66---6/8--\6---5-555-5h6----
|---6-6-6-6-6-666-6-6-66---6/8--\6---6-666-6-6----
|-------------------------------------------------
|-------------------------------------------------


thats how i play it anyways...otherwise the rest of it looks very good. bravo.

0 reply
offspring_punk wrote on March 29 2007, 06:18 pm

This isn't too bad, but there's just a few minor mistakes. The solo is a bit off, but I don't think anyone has made it correctly yet, so no worries. Cheers.

0 reply
jackroberts103 wrote on January 30 2010, 05:44 pm

if you want a corrsct solo, go on youtube a surch for the channel SUSUMETAL he has the full tab tell you how to play it and the solo is most definatly corect or sound exactly like it, ive played his version of the solo sounds spot on to me, so cheack it out.

I want to post or [tab]
guest
You may want to rate the tab now too:
select rating
Please do not post tabs as comments. Select "correction" instead!