Oops, an error
Loading. Please wait.

The Kids Arent Alright Tab

912,831 views 873 this week
78 commentsread comments
1 2 3 4 5
excellent!
x 278
add to favorites
launch autoscroll
font size
0
reset
how to read this tab
guitar tuner
Tab Pro tools
  • play this tab
  • loop segment
  • change instrument
  • show fretboard
  • metronome
×
Best way to learn
"The Kids Arent Alright"
Autoscroll
slow
fast
+/-
esc
set tempo
stop
THE KIDS AREN'T ALRIGHT
by the OFFSPRING

from the album AMERICANA
tabbed by Marcus Hynes


[Intro]

e|--------------------------------------------------|
B|--------------------------------------------------|
G|--------------------------------------------------|
D|-----6-----6-----6--5-5-5/6------6-----6-5-5-5\6--|
A|-8-8-8-8-8-8-8-8-8--8-8-8-8--4-4-4-4-4-4-4-4-4-4--|
E|--------------------------------------------------|

e|---------------------------------------|
B|---------------------------------------|
G|---------------------------------------|
D|-----5----5----5-5-5/6---8--6--5-5-5/6-|
A|-6-6-6-6-6-6-6-6-6-6/6---6--6--6-6-6/6-|
E|---------------------------------------|     X2

e|---------------------------------------------------------------|
B|---------------------------------------------------------------|
G|---------------------------------------------------------------|
D|---------------------------------------------------------------|
A|-1--1--1/3--3/4------3-4----------3-4-6-4--3/4-----------------|
E|----------------2--2-----4--4-4/6------------------------------| X2


[Verse]
    
e|--------------------------------------------------------------------------|
B|--------------------------------------------------------------------------|
G|-------------------------------------6-6-6-6-6-6-6-6----------------------|
D|-8-8-8-8-8-8-8-8---4-4-4-4-4-4-4-4---6-6-6-6-6-6-6-6----6-6-6-6-6-6-6-6---| x2
A|-8-8-8-8-8-8-8-8---4-4-4-4-4-4-4-4---4-4-4-4-4-4-4-4----6-6-6-6-6-6-6-6---|
E|-6-6-6-6-6-6-6-6---2-4-4-4-4-4-4-4----------------------4-4-4-4-4-4-4-4---|


[Chorus]

e|--------------------------------------------------------------------------|
B|--------------------------------------------------------------------------|
G|-------------------------------------6-6-6-6-6-6-6-6----------------------|
D|-8-8-8-8-8-8-8-8---4-4-4-4-4-4-4-4---6-6-6-6-6-6-6-6----6-6-6-6-6-6-6-6---| x2
A|-8-8-8-8-8-8-8-8---4-4-4-4-4-4-4-4---4-4-4-4-4-4-4-4----6-6-6-6-6-6-6-6---|
E|-6-6-6-6-6-6-6-6---2-4-4-4-4-4-4-4----------------------4-4-4-4-4-4-4-4---|


[Instrumental]

e|---------------------------------------------------------------|
B|---------------------------------------------------------------|
G|---------------------------------------------------------------|
D|---------------------------------------------------------------|
A|-1--1--1/3--3/4------3-4----------3-4-6-4--3/4-----------------|
E|----------------2--2-----4--4-4/6------------------------------| X2


[Verse]
    
e|--------------------------------------------------------------------------|
B|--------------------------------------------------------------------------|
G|-------------------------------------6-6-6-6-6-6-6-6----------------------|
D|-8-8-8-8-8-8-8-8---4-4-4-4-4-4-4-4---6-6-6-6-6-6-6-6----6-6-6-6-6-6-6-6---| x2
A|-8-8-8-8-8-8-8-8---4-4-4-4-4-4-4-4---4-4-4-4-4-4-4-4----6-6-6-6-6-6-6-6---|
E|-6-6-6-6-6-6-6-6---2-4-4-4-4-4-4-4----------------------4-4-4-4-4-4-4-4---|


[Chorus]

e|--------------------------------------------------------------------------|
B|--------------------------------------------------------------------------|
G|-------------------------------------6-6-6-6-6-6-6-6----------------------|
D|-8-8-8-8-8-8-8-8---4-4-4-4-4-4-4-4---6-6-6-6-6-6-6-6----6-6-6-6-6-6-6-6---| x2
A|-8-8-8-8-8-8-8-8---4-4-4-4-4-4-4-4---4-4-4-4-4-4-4-4----6-6-6-6-6-6-6-6---|
E|-6-6-6-6-6-6-6-6---2-4-4-4-4-4-4-4----------------------4-4-4-4-4-4-4-4---|


[Solo]

                                           (full bends)
e|---------------------------------------------------------------|
B|-----------------------------------------/7b--9b----12b----14b-|
G|---------------------------------------------------------------|
D|---------------------------------------------------------------|
A|-8\-----1-----1/3--4----4/6---6-6/8----------------------------|
E|---------------------------------------------------------------|

e|-------------16-------------------------13---13--13----13---|
B|------16-----------16b1816r--14--16--16b--------------------|
G|------------------------------------------------------------|
D|------------------------------------------------------------|
A|------------------------------------------------------------|
E|------------------------------------------------------------|

e|--13--13----13--13----13---13---13--------------------------------|
B|-------------------------------------16b---16r--14-------14-16-14-|
G|------------------------------------------------------15----------|
D|------------------------------------------------------------------|
A|------------------------------------------------------------------|
E|------------------------------------------------------------------|

e|------------------------------------9---9--------------------|
B|-----14\9--------------------9---9--------------9------------|
G|-15--------11b---11---11---------------------------10---11/13|
D|-------------------------------------------------------------|
A|-------------------------------------------------------------|
E|-------------------------------------------------------------|

e|---------------------------------------------------------------|
B|---------------14---14---16b--16--16--16--14---16b~~---14\-----|
G|-13--13---13/--------------------------------------------------|
D|---------------------------------------------------------------|
A|---------------------------------------------------------------|
E|---------------------------------------------------------------|


[Chorus]

e|--------------------------------------------------------------------------|
B|--------------------------------------------------------------------------|
G|-------------------------------------6-6-6-6-6-6-6-6----------------------|
D|-8-8-8-8-8-8-8-8---4-4-4-4-4-4-4-4---6-6-6-6-6-6-6-6----6-6-6-6-6-6-6-6---| x2
A|-8-8-8-8-8-8-8-8---4-4-4-4-4-4-4-4---4-4-4-4-4-4-4-4----6-6-6-6-6-6-6-6---|
E|-6-6-6-6-6-6-6-6---2-4-4-4-4-4-4-4----------------------4-4-4-4-4-4-4-4---|


[Outro]

e|-------------------------------------------|
B|--11--9--11--9--11--9--11--9--11--9--11--9-|
G|-------------------------------------------|
D|-------------------------------------------|  (Repeat as needed)
A|-------------------------------------------|
E|-------------------------------------------|


*********************
|/   Slide up
|\   Slide down
|b   Bend
|r   Release
*********************
comments
print report bad tab
78 comments total. Showing first comments.
0 reply
skaterpim9 wrote on March 7 2002, 12:00 am

u forgot to put the p.m.'s in intro

+2 reply
Judge Dredd wrote on March 11 2002, 12:00 am

HOLY FUCK! U DID THIS BY YOURSELF?! UNBELIEVABLE. Looks like somethin out a music book!

0 reply
notbychoice wrote on March 20 2002, 12:00 am

Cool, but i don't know about the chorus being the same as the verse.....

I want to post or [tab]
guest
You may want to rate the tab now too:
select rating
Please do not post tabs as comments. Select "correction" instead!