Oops, an error
Loading. Please wait.

The Kids Arent Alright Ukulele Chords

version 2
version 2
16 views 3 this week
no commentswrite comment
1 2 3 4 5
2 more votes to show rating
add to favorites
launch autoscroll
font size
0
reset
transpose
0
reset
display chords
guitar tuner
Autoscroll
slow
fast
+/-
esc
set tempo
stop
Help us to improve Ultimate-Guitar.com Take our survey!
×
Author
Difficulty
Capo
intermediate
1st fret
Capo 1st fret


A|-0-0---2-3-------2-3----------2-2-2-2-------3-3-3-3-3/5-5-5-5-3-3-3-3-2-2-2-2-|
E|-------------1-1-------3-3-3-3-------5-5-5-5----------------------------------|
C|------------------------------------------------------------------------------|
G|------------------------------------------------------------------------------|


A|-4-4-4-4--repeat-x2------------------------------------------|
E|-------------------------------------------------------------|
C|-------------------------------------------------------------|
G|-------------------------------------------------------------|

[Verse]

Am
When we were young, the future was so bright, whoa
F
The old neighborhood was so alive, whoa
C
And every kid on the whole damn street, whoa
G
Was gonna make it big and not be beat
Am
Now, the neighborhoods cracked and torn, whoa
F
The kids are grown up, but their lives are worn, whoa
C
How can one little street
G
Swallow so many lives

[Chorus]

Am
Chances thrown, 
F
Nothings free
C
Longing for
G
What used to be
Am
Still, it's hard
F
Hard to see
C
Fragile lives 
G
Shattered dreams

|-0-0---2-3-------2-3----------2-2-2-2-------3-3-3-3-3/5-5-5-5-3-3-3-3-2-2-2-2-|
|-------------1-1-------3-3-3-3-------5-5-5-5----------------------------------|
|------------------------------------------------------------------------------|
|------------------------------------------------------------------------------|


|-4-4-4-4--repeat-x2------------------------------------------|
|-------------------------------------------------------------|
|-------------------------------------------------------------|
|-------------------------------------------------------------|

[Verse]

Am
Jamie had a chance, well, she really did, whoa
F
Instead, she dropped out and had a couple of kids, whoa
C
Mark still lives at home cause he's got no job, whoa
G
He just plays guitar and smokes a lotta pot
Am
Jay committed suicide, whoa
F
Brandon O. D. 'd and died, whoa
C
What the hell is going on
G
The cruelest dream, reality

[Chorus]

Am
Chances thrown, 
F
Nothings free
C
Longing for
G
What used to be
Am
Still, it's hard
F
Hard to see
C
Fragile lives 
G
Shattered dreams

Go!

[Solo]
    S            S         S       S       S                       
A|--------0-----0-3----------------------------------------------|
E|------------------------------------------1---3----------------|
C|-4----------------------0-2---2-2-4----------------------------|
G|----------------------------------------------------3------5---|
                                                                
A|-------------------------------------------------------------|
E|-------------------------------------------------------------|
C|-------------------------------------------------------------|
G|------7------12-----7--9-7----5---7---7--9----9---9-----9----|
                                                                      
A|------------------------------------------------------------------|
E|------------------------------------------------------5-----------|
C|------------------------------------------------------------------|
G|--9---9-----9---9-----9----9----9----7-----7----5--------5--7--5--|
         S                                                  S    
A|-------------------------------------------------------------|
E|-5------3--------------------3---3--------------3----------3-|
C|-----------5-----5----5----------------------------5----5----|
G|-----5-------b----------------------5---5--------------------|
              S                                     ~~     S       
A|---------------------------------------------------------------|
E|-3---3----3----------------------------------------------------|
C|---------------------------------------------------------------|
G|---------------5----5----7----7---7---7---5----7-------5-------|


[Chorus]

Am
Chances thrown,
F
Nothings free
C
Longing for
G
what used to be
Am
Still, it's hard
F
Hard to see
C
Fragile lives
G
Shattered dreams
Suggest correction
Give kudos to tab author, rate the tab!
1 2 3 4 5
comments
print report bad tab
guest
You may want to rate the tab now too:
select rating
Wanna post a correction for this tab? Suggest correction