Oops, an error
Loading. Please wait.

The Kids Arent Alright Tab

6,786 views 42 this week
1 commentread comment
1 2 3 4 5
accurate
x 3
add to favorites
launch autoscroll
font size
0
reset
how to read this tab
guitar tuner
Tab Pro tools
  • play this tab
  • loop segment
  • change instrument
  • show fretboard
  • metronome
Autoscroll
slow
fast
+/-
esc
set tempo
stop
Contributor
I 'd like to say thanks to Marcus Hynes, ozzy_osbourne23@hotmail.com for figuring out 
the solo, he made version 2. anyway, i have both guitars tabed in this one, guitar 1 is 
on the top, guitar 2 on the bottom. oh ya, e-mail me if ya want, creamthecookie@hotmail.com,
it's adam.

        The Kids Aren’t Alright - Offspring

Guitar 1

intro x2
e|-------------------|-------------------|-------------------|
b|-------------------|-------------------|-------------------|
g|—--6-6--5---5-6666-|—--6-6--5—--5-6666-|—--6-6--5—--5-6666-|
d|-88888888888888888-|-44444444444444444-|-66666666666666666-|
a|-**-*-**-***-*-----|-**-*-**-***-*-----|-**-*-**-***-*-----| PM=*
E|-------------------|-------------------|-------------------|
e|-----------------|
b|-----------------|
g|-888866655556666-|
d|-666666666666666-|
a|-----------------|
E|-----------------|

interlude x2
e|----------------------------------------------------------|
b|----------------------------------------------------------|
g|----------------------------------------------------------|
d|----------------------------------------------------------|
a|-------------3-4-----------33333-4444-6666-4444-3333-4444-|
E|-6-6-8-9-2-2-----4444-6666--------------------------------|

verse 1 x2
e|---------------------------------------------|
b|---------------------------------------------|
g|-8********8------------6********6------------|
d|-8********8-4********4-6********6-6********6-|
a|-6********6-4********4-4********4-6********6-|
E|------------2********2------------4********4-|

chorus x2
e|---------------------------------------------|
b|------------6666666666-----------------------|
g|-3333333333-6666666666-6666666666------------|
d|-3333333333-4444444444-6666666666-6666666666-|
a|-1111111111------------4444444444-6666666666-|
E|----------------------------------4444444444-|

interlude x2
e|----------------------------------------------------------|
b|----------------------------------------------------------|
g|----------------------------------------------------------|
d|----------------------------------------------------------|
a|-------------3-4-----------33333-4444-6666-4444-3333-4444-|
E|-6-6-8-9-2-2-----4444-6666--------------------------------|

verse 2 x2
e|---------------------------------------------|
b|---------------------------------------------|
g|-8********8------------6********6------------|
d|-8********8-4********4-6********6-6********6-|
a|-6********6-4********4-4********4-6********6-|
E|------------2********2------------4********4-|

chorus x2
e|---------------------------------------------|
b|------------6666666666-----------------------|
g|-3333333333-6666666666-6666666666------------|
d|-3333333333-4444444444-6666666666-6666666666-|
a|-1111111111------------4444444444-6666666666-|
E|----------------------------------4444444444-|

solo
e|----------------------------------------------------------------|
b|-----------------------------------------/-7b--9b----12b----14b-|
g|----------------------------------------------------------------|
d|----------------------------------------------------------------|
a|-8-\----1-----1/3--4----4/6---6-6/8-----------------------------|
E|----------------------------------------------------------------|

e|-------------16----------------------------13---13--13----13—--|
b|------16^----------16b-(18)-16r--14--16--16b-------------------|
g|---------------------------------------------------------------|
d|---------------------------------------------------------------|
a|---------------------------------------------------------------|
E|---------------------------------------------------------------|

e|--13--13----13--13----13---13---13--------------------------------|
b|-------------------------------------16b---16r--14-------14-16-14-|
g|------------------------------------------------------15----------|
d|------------------------------------------------------------------|
a|------------------------------------------------------------------|
E|------------------------------------------------------------------|

e|---------------------------------------9---9---------------------|
b|-----14-\--9--------------------9---9--------------9-------------|
g|-15-----------11b---11---11---------------------------10---11/13-|
d|-----------------------------------------------------------------|
a|-----------------------------------------------------------------|
E|-----------------------------------------------------------------|

e|---------------------------------------------------------------|
b|---------------14---14---16b--16--16--16--14---16b~~---14\-----|
g|-13--13---13/--------------------------------------------------|
d|---------------------------------------------------------------|
a|---------------------------------------------------------------|
E|---------------------------------------------------------------|

chorus x2
e|---------------------------------------------|
b|------------6666666666-----------------------|
g|-3333333333-6666666666-6666666666------------|
d|-3333333333-4444444444-6666666666-6666666666-|
a|-1111111111------------4444444444-6666666666-|
E|----------------------------------4444444444-|

end on
e|----------|
b|----------|
g|-3~-----3-|
d|-3~-----3-|
a|-1~-----1-|
E|----------|



Guitar #2

intro x1 (wait for guitar 1 to go through the intro once then begin on #2)
e|---------------------------------------------------------------------|
b|---------------------------------------------------------------------|
g|-8--------------8------------------6--------------6------------------|
d|-8-wait 8 beats-8-4--------------4-6-wait 8 beats-6-6--------------6-|
a|-6--------------6-4-wait 8 beats-4-4--------------4-6-wait 8 beats-6-|
E|------------------2--------------2------------------4--------------4-|

interlude x2
e|---------------------------------------------|
b|---------------------------------------------|
g|-8888888888------------6666666666------------|
d|-8888888888-4444444444-6666666666-6666666666-|
a|-6666666666-4444444444-4444444444-6666666666-|
E|------------2222222222------------4444444444-|

verse 1 x2
e|---------------------------------------------|
b|---------------------------------------------|
g|-8********8------------6********6------------|
d|-8********8-4********4-6********6-6********6-|
a|-6********6-4********4-4********4-6********6-|
E|------------2********2------------4********4-|

chorus x2
e|---------------------------------------------|
b|------------6666666666-----------------------|
g|-3333333333-6666666666-6666666666------------|
d|-3333333333-4444444444-6666666666-6666666666-|
a|-1111111111------------4444444444-6666666666-|
E|----------------------------------4444444444-|

interlude x2
e|---------------------------------------------|
b|---------------------------------------------|
g|-8888888888------------6666666666------------|
d|-8888888888-4444444444-6666666666-6666666666-|
a|-6666666666-4444444444-4444444444-6666666666-|
E|------------2222222222------------4444444444-|

verse 1 x2
e|---------------------------------------------|
b|---------------------------------------------|
g|-8********8------------6********6------------|
d|-8********8-4********4-6********6-6********6-|
a|-6********6-4********4-4********4-6********6-|
E|------------2********2------------4********4-|

chorus x2
e|---------------------------------------------|
b|------------6666666666-----------------------|
g|-3333333333-6666666666-6666666666------------|
d|-3333333333-4444444444-6666666666-6666666666-|
a|-1111111111------------4444444444-6666666666-|
E|----------------------------------4444444444-|

solo x2
e|---------------------------------------------|
b|---------------------------------------------|
g|-8888888888------------6666666666------------|
d|-8888888888-4444444444-6666666666-6666666666-|
a|-6666666666-4444444444-4444444444-6666666666-|
E|------------2222222222------------4444444444-|

outro x39
e|-6-4-|        e|-6-|
b|-----|        b|—--|
g|-----|        g|---|
d|-----| end on d|---|
a|-----|        a|---|
E|-----|        E|---|
comments
We did not receive enough feedback on this tab! Please rate:
print report bad tab
1 2 3 4 5
1 comment total.
0 reply
will_bmwz3 wrote on April 27 2002, 12:00 am

nice job dude
good Tab 100% correct thanx dude

I want to post or [tab]
guest
You may want to rate the tab now too:
select rating
Please do not post tabs as comments. Select "correction" instead!