Oops, an error
Loading. Please wait.

The Noose Tab

version 5
version 5
590 views 1 this week
1 commentread comment
1 2 3 4 5
accurate
x 5
add to favorites
launch autoscroll
font size
0
reset
how to read this tab
guitar tuner
Tab Pro tools
  • play this tab
  • loop segment
  • change instrument
  • show fretboard
  • metronome
Autoscroll
slow
fast
+/-
esc
set tempo
stop
Contributor
----------------------------------------------------------------------------
                          THE NOOSE - THE OFFSPRING
----------------------------------------------------------------------------

Tabbed by: Meadowskid
Email: meadowskid@hotmail.com

Tuning: Standard EADGBe

This is straight out of the book so im one hundred percent positive its right except
for i made a few changes because it sounds better my way.

Intro riff
4 times
e|-------------------------------------------------------------------------|
B|-------------------------------------------------------------------------|
G|-------------------------------------------------------------------------|
D|-------9------9---------5-----5-----------0---4---5---4---2---4---5---4--|
A|--7-7----7-7----0---------------------------0---0---0---0---2---2---2---2|
E|--------------------3-3---3-3---3-3-3------------------------------------|

After the 4th time play this
e|-------------------------------------------------------------------------|
B|----------------------------------------------8--------------------------|
G|----------------------------------7--------------------------------------|
D|--2---------------5----------------------------------------2-------------|
A|--2--------------------------------------------------------2-------------|
E|--0--------------------------------------------------------0-------------|

the first part of the verse is just bass

second part of verse
e|-----------------------3-----3--3--3--3--3--2-----2--2--2--2--2----------|
B|-----------------------0-----0--0--0--0--0--3-----3--3--3--3--3----------|
G|-----------------------0-----0--0--0--0--0--2-----2--2--2--2--2----------|
D|--2-----2--2--2--2--2--0-----0--0--0--0--0--0-----0--0--0--0--0----------|
A|--2-----2--2--2--2--2--2-----2--2--2--2--2-------------------------------|
E|--0-----0--0--0--0--0--3-----3--3--3--3--3-------------------------------|

e|-------------------------------------------3-----3--3--3--3--3-----------|
B|-------------------------------------------0-----0--0--0--0--0-----------|
G|-------------------------------------------0-----0--0--0--0--0-----------|
D|-2-----2--2--2--2--2--2-----2--2--2--2--2--0-----0--0--0--0--0-----------|
A|-2-----2--2--2--2--2--2-----2--2--2--2--2--2-----2--2--2--2--2-----------|
E|-0-----0--0--0--0--0--0-----0--0--0--0--0--3-----3--3--3--3--3-----------|

                                          chorus\/starts there 2x
e|-----------------------------------3--3--3--3--7----7----7--7----7-------|
B|--3-----3--3--3--3--3--3--3--3--3--0--0--0--0--8----8----8--8----8-------|
G|--2-----2--2--2--2--2--2--2--2--2--0--0--0--0--9----9----9--9----9-------|
D|--0-----0--0--0--0--0--0--0--0--0--0--0--0--0--9----9----9--9----9-------|
A|--0-----0--0--0--0--0--0--0--0--0--2--2--2--2--7----7----7--7----7-------|
E|--2-----2--2--2--2--2--2--2--2--2--3--3--3--3----------------------------|

e|--3--3--3--3--3--3---------------------------7--7--7--7--7--7--7--7--7---|
B|--4--4--4--4--4--4---------------------------8--8--8--8--8--8--8--8--8---|
G|--5--5--5--5--5--5----7--7----7----7--7------9--9--9--9--9--9--9--9--9---|
D|--5--5--5--5--5--5----7--7----7----7--7------9--9--9--9--9--9--9--9--9---|
A|--5--5--5--5--5--5----5--5----5----5--5------7--7--7--7--7--7--7--7--7---|
E|--3--3--3--3--3--3-------------------------------------------------------|

   verse 2 play every eight beats
e|-------------------------------------------------------------------------|
B|-------------------------------------------------------------------------|
G|-------------------------------------------------------------------------|
D|-------------------------------------------------------------------------|
A|-------------------------------------------------------------------------|
E|--0--0-------------------------------------------------------------------|

Play after (and my bodys getting numb) on the whoa.
e|--------------------------------------3--3--3--3--2--2--2--2--2--2--2--2-|
B|--3--3--3--3--3--3--3--3--3--3--3--3--0--0--0--0--3--3--3--3--3--3--3--3-|
G|--2--2--2--2--2--2--2--2--2--2--2--2--0--0--0--0--2--2--2--2--2--2--2--2-|
D|--0--0--0--0--0--0--0--0--0--0--0--0--0--0--0--0--0--0--0--0--0--0--0--0-|
A|--0--0--0--0--0--0--0--0--0--0--0--0--2--2--2--2-------------------------|
E|--2--2--2--2--2--2--2--2--2--2--2--2--3--3--3--3-------------------------|

e|--2--2--2--2--2--2--2--2-------------------------------------------------|
B|--3--3--3--3--3--3--3--3-------------------------------------------------|
G|--2--2--2--2--2--2--2--2-----------______------------______--------------|
D|--0--0--0--0--0--0--0--0-----------|----|------------|----|--------------|
A|-------------------------------------------------------------------------|
E|-------------------------------------------------------------------------|

chorus

Interlude

e|-------------------------------------------------------------------------|
B|----------------------------------------------8--------------------------|
G|-----------------------------------7-------------------------------------|
D|--2----------------5----------------------------------2------------------|
A|--2---------------------------------------------------2------------------|
E|--0---------------------------------------------------0------------------|


e|--7----7----7--7----7----------------------------------------------------|
B|--8----8----8--8----8----------------------------------------------------|
G|--9----9----9--9----9--12-12-12-12---12-12-12--7----7----7--7----7-------|
D|--9----9----9--9----9--12-12-12-12---12-12-12--7----7----7--7----7-------|
A|--7----7----7--7----7--10-10-10-10---10-10-10--5----5----5--5----5-------|
E|-------------------------------------------------------------------------|

                         \/ over intro riff
e|--7----7----7--7----7----------------------------------------------------|
B|--8----8----8--8----8--------------12-----------------------15--15--15---|
G|--9----9----9--9----9--12/14~------14b----14b--r-----12-----17b-17b-17b--|
D|--9----9----9--9----9----------------------------------------------------|
A|--7----7----7--7----7----------------------------------------------------|
E|-------------------------------------------------------------------------|

e|-------------------------------------------------------------------------|
B|--17---17---17-----------------------------------------------------------|
G|--19b--19b--19b----------------------------------------------------------|
D|-------------------------------------------------------------------------|
A|-------------------------------------------------------------------------|
E|-------------------------------------------------------------------------|

Chorus

Intro riff

 2x half time thing
e|-------------------------------------------------------------------------|
B|-------------------------------------------------------------------------|
G|-7/9--------9----9-------------------------5/7----------7----7-----------|
D|-7/9--------9----9----4/5--------5----5----5/7----------7----7-----------|
A|-5/7--7--7--7----7----4/5--------5----5----3/5--5--5----5----5-----------|
E|----------------------2/3--3--3--3----3----------------------------------|
pm      .  .                 .  .                 .  . 
(NO MORE!)

e|-------------------------------------------------------------------------|
B|-------------------------------------------------------------------------|
G|--7/9--------9----9------------------------------------------------------|
D|--7/9--------9----9------------------------------------------------------|
A|--5/7--7--7--7----7------------------------------------------------------|
E|-------------------------------------------------------------------------|
pm       .  .

e|-------------------------------------------------------------------------|
B|-------------------------------------------------------------------------|
G|--7/9--------9----9-------------------------7----------------------------|
D|--7/9--------9----9----4/5--------5----5----7----------------------------|
A|--5/7--7--7--7----7----4/5--------5----5----5----5--5--5--5--5--5--------|
E|-----------------------2/3--3--3--3----3---------------------------------|
pm       .  .                 .  .                 .  .  .  .  .  .
(NO!!)

e|-------------------------------------------------------------------------|
B|-------------------------------------------------------------------------|
G|--9--9--9--9--9--9--9--9-------------------------------------------------|
D|--9--9--9--9--9--9--9--9-------------------------------------------------|
A|--7--7--7--7--7--7--7--7-------------------------------------------------|
E|-------------------------------------------------------------------------|

chorus

outro
e|-------------------------------------------------------------------------|
B|---------------------------------------------------8---------------------|
G|------------------------------------7------------------------------------|
D|--2----------------5-------------------------------------2---------------|
A|--2------------------------------------------------------2---------------|
E|--0------------------------------------------------------0---------------|




| /  slide up
| \  slide down
| h  hammer-on
| p  pull-off
| ~  vibrato
| +  harmonic
| x  Mute note
| ______
| |    | whole rest
|b   bend
|br  bend release
============================================================================
comments
print report bad tab
1 comment total.
0 reply
!,,! (-.-) !,,! wrote on January 14 2009, 01:25 pm

nice dude even though its from the book.. should be 5 stars

I want to post or [tab]
guest
You may want to rate the tab now too:
select rating
Please do not post tabs as comments. Select "correction" instead!