Oops, an error
Loading. Please wait.

The Worst Hangover Ever Tab

version 1
version 1

Whole song

Interactive

8,953 views 9 this week
2 commentsread comments
1 2 3 4 5
x 15
add to favorites
launch autoscroll
font size
0
reset
how to read this tab
guitar tuner
×
Best way to learn
"The Worst Hangover Ever"
Autoscroll
slow
fast
+/-
esc
set tempo
stop
Author
Band; Offspring
Album; Splinter
Song; The Worst Hangover Ever
Written by; Dexter Holland
Tabbed by; Iceman
Tuning ; Standard

This is only Noodles Parts ,but it sounds and looks like dexter only plays dead
notes throughout most of the song neway. It sounds 100% correct. Pleez rate this
its my first tab.



Intro/Verse:
e|-6--6--6--6---4--4---2--2--|
b|-7--7--7--7---6--6---4--4--|
G|-6--6--6--6---6--6---4--4--|
D|---------------------------|
A|---------------------------|
E|---------------------------|

Chorus:
e|-6--6--6--6---9---9----7--7--|
b|-7--7--7--7---9---9----7--7--|
G|-6--6--6--6---10--10---8--8--|
D|-----------------------------|
A|-----------------------------|
E|-----------------------------|

Bridge:
Wont someone just kill me....
e|-1-1-1-1--2-2-2-2--6-6-6-6-6-6-6-6--4-4-4-4-4-4-4-4-|
b|-3-3-3-3--4-4-4-4--7-7-7-7-7-7-7-7--4-4-4-4-4-4-4-4-|
G|-3-3-3-3--4-4-4-4--6-6-6-6-6-6-6-6--5-5-5-5-5-5-5-5-|
D|----------------------------------------------------|
A|----------------------------------------------------|
E|----------------------------------------------------|


Easy......

Iceman
Lcbd Rocks
Suggest correction
comments
print report bad tab
2 comments total.
0 reply
stef123 10 Jul 27, 2007 10:40 AM

p

0 reply
szweden.offic 111 Mar 15, 2015 05:11 AM

b|-2-2-4-5-6---6-4-4-2~-|
trumpet intro as far as i'm concerned
#NotACorrection

guest
You may want to rate the tab now too:
select rating
Wanna post a correction for this tab? Suggest correction