Oops, an error
Loading. Please wait.

The Worst Hangover Ever tab

version 2
version 2

Whole song

Interactive

1,165 views 9 this week
no commentswrite comment
1 2 3 4 5
2 more votes to show rating
add to favorites
×
Save as Personal and add changes to this tab that will be seen only by you. Learn more ›
×
You can save this tab as Personal to edit and correct it or add notes. All changes will be seen only by you. Learn more »
launch autoscroll
font size
0
reset
how to read this tab
guitar tuner
edit
Autoscroll
slow
fast
+/-
esc
set tempo
stop
Author
The Worst Hangover

By: The Offspring


This is my first tab so let me know how i did :)


=========================================================================
=========================================================================


Ballroom scene, but the fire underneath,
Gonna eat you all alive,
Gonna bring you to your knees.    

(GO!)


    F#             C#    B
e||-2--2--2--2--|--9--9--7--7--|
b||-2--2--2--2--|--9--9--7--7--|
G||-3--3--3--3--|-10-10--8--8--|
D||-4--4--4--4--|-11-11--9--9--|
A||-------------|--------------|
E||-------------|--------------|


Intro [play 4 times]


Went out drinking late last night, I had a blast,
But now the morning light has come and kicked my ass!

(WOAH OHHH OHHH)

I've got the worst hangover ever!
I'm crawling to the bathroom again
It hurts so bad that I'm never gonna drink again

And by my seventh shot I was invincible
I would've never thought I'd be this miserable

(WOAH OHHH OHHH)

I've got the worst hangover ever!
I'm rollin' back and forth on the bed
I'm worked so bad that I'm never gonna drink again

Won't someone just kill me
 
     F             F#
e||--1--1--1--1-|--2--2--2--2-|
b||--1--1--1--1-|--2--2--2--2-|
G||--2--2--2--2-|--3--3-=3--3-|
D||--3--3--3--3-|--4--4--4--4-|
A||-------------|-------------|
E||-------------|-------------|

Put me out of my misery!
 
     F# {alt}
e||--6--6--6--6-|--6--6--6--6-|
b||--7--7--7--7-|--7--7--7--7-|
G||--6--6--6--6-|--6--6--6--6-|
D||--8--8--8--8-|--8--8--8--8-|
A||-------------|-------------|
E||-------------|-------------|

I'm makin' deals with God, I'll do anything!

     G#
e||--4--4--4--4-|--4--4--4--4-|
b||--4--4--4--4-|--4--4--4--4-|
G||--5--5--5--5-|--5--5--5--5-|
D||--6--6--6--6-|--6--6--6--6-|
A||-------------|-------------|
E||-------------|-------------|


make it stop please, make it stop please!

     C#
e||--9--------9-|-------------|
b||--9--------9-|-------------|
G||-10-------10-|-------------|  X2
D||-11-------11-|-------------|
A||-------------|-------------|
E||-------------|-------------|


[break Play Intro 4 Times]


(WOAH OHHH OHHH)

I've got the worst hangover ever!
I'm crawlin' to the bathroom again,

It hurts so bad that I'm never gonna drink again.
I'll probably never drink again.
I may not ever drink again.
At least not 'til next weekend

I'm never gonna drink again!


=========================================================================
=========================================================================

Tabbed By G.I.JOE
Email - rtb_bread@hotmail.com

=========================================================================
=========================================================================
Suggest correction
Creating personal tab
Creating personal tab
You can edit any tab online and save it as your Personal.

You can edit, replace or remove any tab part or add personal notes – all changes will be seen only by you.

Personal tabs can be accessed anytime from any device, even offline.
Learn more »
Give kudos to tab author, rate the tab!
1 2 3 4 5
comments
print report bad tab
guest
You may want to rate the tab now too:
select rating
Wanna post a correction for this tab? Suggest correction