Oops, an error
Loading. Please wait.
We have an official Trust In You tab made by UG professional guitarists. Check out the tab »
×
100 views 1 this week
no commentswrite comment
1 2 3 4 5
1 last vote to show rating
add to favorites
×
Save as Personal and add changes to this tab that will be seen only by you. Learn more ›
×
You can save this tab as Personal to edit and correct it or add notes. All changes will be seen only by you. Learn more »
launch autoscroll
font size
0
reset
how to read this tab
guitar tuner
edit
Autoscroll
slow
fast
+/-
esc
set tempo
stop
Author
Band: Offspring
Song: Trust In You

[Intro]

e|---------------------------------------------------------------------------|
B|---------------------------------------------------------------------------|
G|---10----------------------------------------------------------------------|
D|---10----------------------------------------------------------------------|
A|---8-----------------------------------------------------------------------|
E|---------------------------------------------------------------------------|

e|---------------------------------------------------------------------------| 
B|---------------------------------------------------------------------------|
G|---10-10--10-10--------------8-8--8-8--------------------------------------|
D|---10-10--10-10--5-6-6--6-6--8-8--8-8--8-10-10--10-10----------------------|
A|---8--8---8--8---5-6-6--6-6--6-6--6-6--8-10-10--10-10----------------------|
E|-----------------3-4-4--4-4------------6-8--8---8--8-----------------------|

e|---------------------------------------------------------------------------|
B|---------------------------------------------------------------------------|
G|---10-10--10-10--------------8-8--8-8--------------------------------------|
D|---10-10--10-10--5-6-6--6-6--8-8--8-8--8-10-10-10-10-----------------------|
A|---8--8---8--8---5-6-6--6-6--6-6--6-6--8-10-10-10-10-----------------------|
E|-----------------3-4-4--4-4------------6-8--8--8--8------------------------|


[Verse]

e|-------------------------------------------------------------------------------------------|
B|-------------------------------------------------------------------------------------------|
G|---10-10-101010-10-1010---------------------8-8-888-8-88-----------------------------------|
D|---10-10-101010-10-1010-5-5-6-6-666-6-666-6-8-8-888-8-88-8-8-10-10-101010-10-101010-10-----|
A|---8--8--8-8-8--8--8-8--5-5-6-6-666-6-666-6-6-6-666-6-66-8-8-10-10-101010-10-101010-10-----|
E|------------------------3-3-4-4-444-4-444-4--------------6-6-8--8--8-8-8--8--8-8-8--8------|
    |P.M - - - - - - - - - - - - - - - - - - - - - - - - - - - - - - - - - - - - - - - -| 

e|-------------------------------------------------------------------------------------------|
B|-------------------------------------------------------------------------------------------|
G|---10-10-101010-10-1010---------------------8-8-888-8-88-----------------------------------|
D|---10-10-101010-10-1010-5-5-6-6-666-6-666-6-8-8-888-8-88-8-8-10-10-101010-10-101010-10-----|
A|---8--8--8-8-8--8--8-8--5-5-6-6-666-6-666-6-6-6-666-6-66-8-8-10-10-101010-10-101010-10-----|
E|------------------------3-3-4-4-444-4-444-4--------------6-6-8--8--8-8-8--8--8-8-8--8------|
    |P.M - - - - - - - - - - - - - - - - - - - - - - - - - - - - - - - - - - - - - - - -| 


[Chorus]

e|-------------------------------------------------------------------------------------------------|
B|-------------------------------------------------------------------------------------------------|
G|---1010-10-1010-10-1010-10-1010-10-66-6-66-6-66-6-66-6-8---------------------88-8-88-8-88-8-88-8-|
D|---1010-10-1010-10-1010-10-1010-10-66-6-66-6-66-6-66-6-8-66-6-66-6-66-6-66-6-88-8-88-8-88-8-88-8-|
A|---8-8--8--8-8--8--8-8--8--8-8--8--44-4-44-4-44-4-44-4-6-66-6-66-6-66-6-66-6-66-6-66-6-66-6-66-6-|
E|---------------------------------------------------------44-4-44-4-44-4-44-4---------------------|

e|-------------------------------------------------------------------------------------------------|
B|-------------------------------------------------------------------------------------------------|
G|---1010-10-1010-10-1010-10-1010-10-66-6-66-6-66-6-66-6-8---------------------88-8-88-8-88-8-88-8-|
D|---1010-10-1010-10-1010-10-1010-10-66-6-66-6-66-6-66-6-8-66-6-66-6-66-6-66-6-88-8-88-8-88-8-88-8-|
A|---8-8--8--8-8--8--8-8--8--8-8--8--44-4-44-4-44-4-44-4-6-66-6-66-6-66-6-66-6-66-6-66-6-66-6-66-6-|
E|---------------------------------------------------------44-4-44-4-44-4-44-4---------------------|


[Breakdown]

e|--------------------------------------------------------------------------|
B|--------------------------------------------------------------------------|
G|--------------------------------------------------------------------------|
D|---3-3333-6--6-6-3-3333-8--8-8-3-3333-6-568-10-8-10-----------------------|
A|---3-3333-6--6-6-3-3333-8--8-8-3-3333-6-568-10-8-10-----------------------|
E|---1-1111-4--4-4-1-1111-6--6-6-1-1111-4-346-8--6-8------------------------|
    |P.M - - - - - - - - - - - - - - - - - -  - - - - -| 

e|--------------------------------------------------------------------------|
B|--------------------------------------------------------------------------|
G|--------------------------------------------------------------------------|
D|---3-3333-6--6-6-3-3333-8--8-8-3-3333-6-568-10-810------------------------|
A|---3-3333-6--6-6-3-3333-8--8-8-3-3333-6-568-10-810------------------------|
E|---1-1111-4--4-4-1-1111-6--6-6-1-1111-4-346-8--68-------------------------|
    |P.M - - - - - - - - - - - - - - - - - -  - - - - -| 


[Intro]

e|---------------------------------------------------------------------------| 
B|---------------------------------------------------------------------------|
G|---10-10--10-10--------------8-8--8-8--------------------------------------|
D|---10-10--10-10--5-6-6--6-6--8-8--8-8--8-10-10--10-10----------------------|
A|---8--8---8--8---5-6-6--6-6--6-6--6-6--8-10-10--10-10----------------------|
E|-----------------3-4-4--4-4------------6-8--8---8--8-----------------------|

e|---------------------------------------------------------------------------|
B|---------------------------------------------------------------------------|
G|---10-10--10-10--------------8-8--8-8--------------------------------------|
D|---10-10--10-10--5-6-6--6-6--8-8--8-8--8-10-10-10-10-----------------------|
A|---8--8---8--8---5-6-6--6-6--6-6--6-6--8-10-10-10-10-----------------------|
E|-----------------3-4-4--4-4------------6-8--8--8--8------------------------|


[Verse 2]

e|-------------------------------------------------------------------------------------------|
B|-------------------------------------------------------------------------------------------|
G|---10-10-101010-10-1010---------------------8-8-888-8-88-----------------------------------|
D|---10-10-101010-10-1010-5-5-6-6-666-6-666-6-8-8-888-8-88-8-8-10-10-101010-10-101010-10-----|
A|---8--8--8-8-8--8--8-8--5-5-6-6-666-6-666-6-6-6-666-6-66-8-8-10-10-101010-10-101010-10-----|
E|------------------------3-3-4-4-444-4-444-4--------------6-6-8--8--8-8-8--8--8-8-8--8------|
    |P.M - - - - - - - - - - - - - - - - - - - - - - - - - - - - - - - - - - - - - - - -|
 
e|-------------------------------------------------------------------------------------------|
B|-------------------------------------------------------------------------------------------|
G|---10-10-101010-10-1010---------------------8-8-888-8-88-----------------------------------|
D|---10-10-101010-10-1010-5-5-6-6-666-6-666-6-8-8-888-8-88-8-8-10-10-101010-10-101010-10-----|
A|---8--8--8-8-8--8--8-8--5-5-6-6-666-6-666-6-6-6-666-6-66-8-8-10-10-101010-10-101010-10-----|
E|------------------------3-3-4-4-444-4-444-4--------------6-6-8--8--8-8-8--8--8-8-8--8------|
    |P.M - - - - - - - - - - - - - - - - - - - - - - - - - - - - - - - - - - - - - - - -| 


[Chorus 2]

e|-------------------------------------------------------------------------------------------------|
B|-------------------------------------------------------------------------------------------------|
G|---1010-10-1010-10-1010-10-1010-10-66-6-66-6-66-6-66-6-8---------------------88-8-88-8-88-8-88-8-|
D|---1010-10-1010-10-1010-10-1010-10-66-6-66-6-66-6-66-6-8-66-6-66-6-66-6-66-6-88-8-88-8-88-8-88-8-|
A|---8-8--8--8-8--8--8-8--8--8-8--8--44-4-44-4-44-4-44-4-6-66-6-66-6-66-6-66-6-66-6-66-6-66-6-66-6-|
E|---------------------------------------------------------44-4-44-4-44-4-44-4---------------------|

e|-------------------------------------------------------------------------------------------------|
B|-------------------------------------------------------------------------------------------------|
G|---1010-10-1010-10-1010-10-1010-10-66-6-66-6-66-6-66-6-8---------------------88-8-88-8-88-8-88-8-|
D|---1010-10-1010-10-1010-10-1010-10-66-6-66-6-66-6-66-6-8-66-6-66-6-66-6-66-6-88-8-88-8-88-8-88-8-|
A|---8-8--8--8-8--8--8-8--8--8-8--8--44-4-44-4-44-4-44-4-6-66-6-66-6-66-6-66-6-66-6-66-6-66-6-66-6-|
E|---------------------------------------------------------44-4-44-4-44-4-44-4---------------------|


[Breakdown 2]

e|--------------------------------------------------------------------------|
B|--------------------------------------------------------------------------|
G|--------------------------------------------------------------------------|
D|---3-3333-6--6-6-3-3333-8--8-8-3-3333-6-568-10-8-10-----------------------|
A|---3-3333-6--6-6-3-3333-8--8-8-3-3333-6-568-10-8-10-----------------------|
E|---1-1111-4--4-4-1-1111-6--6-6-1-1111-4-346-8--6-8------------------------|
    |P.M - - - - - - - - - - - - - - - - - -  - - - - -| 

e|--------------------------------------------------------------------------|
B|--------------------------------------------------------------------------|
G|--------------------------------------------------------------------------|
D|---3-3333-6--6-6-3-3333-8--8-8-3-3333-6-568-10-810------------------------|
A|---3-3333-6--6-6-3-3333-8--8-8-3-3333-6-568-10-810------------------------|
E|---1-1111-4--4-4-1-1111-6--6-6-1-1111-4-346-8--68-------------------------|
    |P.M - - - - - - - - - - - - - - - - - -  - - - - -| 


[Solo]

e|---------------------------------------------------------------------------| 
B|---------------------------------------------------------------------------|
G|---------------------------------------------------------------------------|
D|-------10/11\10-10h11h10-11-13-12h10---------------------------------------| x4
A|---6/8--------------------------------13-11--------------------------------|
E|---------------------------------------------------------------------------|

e|--------------------------------------------------------------------------------------|
B|--------------------------------------------------------------------------------------|
G|---13----131213-13/15-13----131213-13/15-13--13--13--13---13/17---17---15b1312--------|
D|-----10-----------------11-----------------10--10--11--11-------13--13----------------|
A|--------------------------------------------------------------------------------------|
E|--------------------------------------------------------------------------------------|


[Chorus]

e|-------------------------------------------------------------------------------------------------|
B|-------------------------------------------------------------------------------------------------|
G|---1010-10-1010-10-1010-10-1010-10-66-6-66-6-66-6-66-6-8---------------------88-8-88-8-88-8-88-8-|
D|---1010-10-1010-10-1010-10-1010-10-66-6-66-6-66-6-66-6-8-66-6-66-6-66-6-66-6-88-8-88-8-88-8-88-8-|
A|---8-8--8--8-8--8--8-8--8--8-8--8--44-4-44-4-44-4-44-4-6-66-6-66-6-66-6-66-6-66-6-66-6-66-6-66-6-|
E|---------------------------------------------------------44-4-44-4-44-4-44-4---------------------|

e|-------------------------------------------------------------------------------------------------|
B|-------------------------------------------------------------------------------------------------|
G|---1010-10-1010-10-1010-10-1010-10-66-6-66-6-66-6-66-6-8---------------------88-8-88-8-88-8-88-8-|
D|---1010-10-1010-10-1010-10-1010-10-66-6-66-6-66-6-66-6-8-66-6-66-6-66-6-66-6-88-8-88-8-88-8-88-8-|
A|---8-8--8--8-8--8--8-8--8--8-8--8--44-4-44-4-44-4-44-4-6-66-6-66-6-66-6-66-6-66-6-66-6-66-6-66-6-|
E|---------------------------------------------------------44-4-44-4-44-4-44-4---------------------|


[Outro]

e|--------------------------------------------------------------------------|
B|--------------------------------------------------------------------------|
G|--------------------------------------------------------------------------|
D|---3-3333-6--6-6-3-3333-8--8-8-3-3333-6-568-10-8-10-----------------------|
A|---3-3333-6--6-6-3-3333-8--8-8-3-3333-6-568-10-8-10-----------------------|
E|---1-1111-4--4-4-1-1111-6--6-6-1-1111-4-346-8--6-8------------------------|
    |P.M - - - - - - - - - - - - - - - - - -  - - - - -| 

e|--------------------------------------------------------------------------|
B|--------------------------------------------------------------------------|
G|--------------------------------------------------------------------------|
D|---3-3333-6--6-6-3-3333-8--8-8-3-3333-6-568-10-810------------------------|
A|---3-3333-6--6-6-3-3333-8--8-8-3-3333-6-568-10-810------------------------|
E|---1-1111-4--4-4-1-1111-6--6-6-1-1111-4-346-8--68-------------------------|
    |P.M - - - - - - - - - - - - - - - - - -  - - - - -| 



************************************

| h   Hammer-on
| b   Bend
| /   Slide up
| \   Slide down
| PM  Palm mute

************************************

            
            
Suggest correction
Creating personal tab
Creating personal tab
You can edit any tab online and save it as your Personal.

You can edit, replace or remove any tab part or add personal notes – all changes will be seen only by you.

Personal tabs can be accessed anytime from any device, even offline.
Learn more »
Give kudos to tab author, rate the tab!
1 2 3 4 5
comments
print report bad tab
guest
You may want to rate the tab now too:
select rating
Wanna post a correction for this tab? Suggest correction