Oops, an error
Loading. Please wait.

Turning Into You Tab

version 1
version 1

Whole song

Interactive

2,658 views 12 this week
no commentswrite comment
1 2 3 4 5
accurate
x 4
add to favorites
launch autoscroll
font size
0
reset
how to read this tab
guitar tuner
Tab Pro tools
  • play this tab
  • loop segment
  • change instrument
  • show fretboard
  • metronome
Autoscroll
slow
fast
+/-
esc
set tempo
stop
Difficulty
novice
-------------------------------------------------------------------------------
                        TURNING INTO YOU - The Offspring
-------------------------------------------------------------------------------


This tab may have some mistakes and its incomplete, but it should give you
an idea on how to play the song

Tuning: Standard

Intro (Gtr.1)
e|---------------------------------------------------------------------------|
B|---------------------------------------------------------------------------|
G|-3/5--55--5\3--33--3/5--5--7--7/9--7--5--3/5--55--5\3--3--5--1-------------|
D|---------------------------------------------------------------------------| x2
A|-1/3--33--3\1--11--1/3--3--5--5/6--5--3--1/3--33--3\1--1--3--1-------------|
E|---------------------------------------------------------------------------|


Intro 2 (Gtr.2) (play when Gtr.1 repeats intro)
e|---------------------------------------------------------------------------|
B|---------------------------------------------------------------------------|
G|-5---------------3---------------5-----------------------------------------|
D|-5-(x4)--3-(x4)--3-(x4)--5-------5-(x4)--3-------6--------8----------------|
A|-3-------3-------1-------5-(x4)--3-------3-(x4)--6-(x12)--8-(x4)-----------|
E|---------1---------------3---------------1-------4--------6----------------|

Verse Filler (this could be wrong)
e|---------------------------------------------------------------------------|
B|-3--------------------4--3-------------------------------------------------|
G|----3-----------------------3----------------------------------------------|
D|----------5----------------------------------------------------------------|
A|-------5-------------------------------------------------------------------|
E|---------------------------------------------------------------------------|

Pre-Chorus
e|---------------------------------------------------------------------------|
B|---------------------------------------------------------------------------|
G|---------------------------------------------------------------------------|
D|--6--6---66-6---66-6---66-6---6---8----------------------------------------|
A|--6--6---66-6---66-6---66-6---6---8----------------------------------------|
E|--4--4---44-4---44-4---44-4---4---6----------------------------------------|

Repeat Intro 2 for Chorus

comments
print report bad tab
I want to post or [tab]
guest
You may want to rate the tab now too:
select rating
Please do not post tabs as comments. Select "correction" instead!