Oops, an error
Loading. Please wait.

Vultures bass

version 2
version 2

Whole song

Interactive

703 views 3 this week
no commentswrite comment
1 2 3 4 5
x 4
add to favorites
×
Save as Personal and add changes to this tab that will be seen only by you. Learn more ›
×
You can save this tab as Personal to edit and correct it or add notes. All changes will be seen only by you. Learn more »
launch autoscroll
font size
0
reset
guitar tuner
backing track
0:00
0:00
edit
Autoscroll
slow
fast
+/-
esc
set tempo
stop
Author
+++++++++++++++++++++++++++
| The Offspring- Vultures |
+++++++++++++++++++++++++++

Tuning: EADG

Intro
1.
G|-----------------------|
D|-----------------------|
A|------3~--3-232----2---|--x2
E|-5~--5---------0~-0-0~-|

"Now I could lie by your side..."
2.
G|-----------------------|
D|-----------------------|
A|------3~--3-232----2---|--x8
E|-5~--5---------0~-0-0~-|

Pre-Chorus
"And you faded there..."
3.
G|-------------------------------------------------------------------|
D|-------------------------------------------------------------------|
A|-5-5/8-8---------5-5/8-8---------5-5/8-8---------------------------|
E|---------5-5/8-8---------5-5/8-8---------5-5/8-8-00000000-00000000-|

Chorus
"Yeah...I dont know..."
4.
G|------------------|     |-------------------|
D|------------------|     |-------------------|
A|-00-033-3---------|--x3 |-55555555/77777777-|
E|---------00-0x-00-|     |-------------------|

Outro
5.
G|-----------------------|
D|-----------------------|
A|------3~--3-232----2---|--x2
E|-5~--5---------0~-0-0~-|

"And in the sun..."
6.
G|-----------------------|
D|-----------------------|
A|------3~--3-232----2---|--x4
E|-5~--5---------0~-0-0~-|

Pre-Chorus
"And you were unchained..."
7.
G|-------------------------------------------------------------------|
D|-------------------------------------------------------------------|
A|-5-5/8-8---------5-5/8-8---------5-5/8-8---------------------------|
E|---------5-5/8-8---------5-5/8-8---------5-5/8-8-00000000-00000000-|

Chorus
"Yeah...I dont know..."
8.
G|------------------|     |-------------------|
D|------------------|     |-------------------|
A|-00-033-3---------|--x3 |-55555555/77777777-|
E|---------00-0x-00-|     |-------------------|

Chorus
"Yeah...I wont play..."
9.
G|------------------|     |-------------------|
D|------------------|     |-------------------|
A|-00-033-3---------|--x3 |-55555555/77777777-|
E|---------00-0x-00-|     |-------------------|

Outro
10.
G|-----------------------|
D|-----------------------|
A|------3~--3-232----2---|--x4
E|-5~--5---------0~-0-0~-|

Pre-Chorus
"And you were unchained..."
11.
G|-------------------------------------------------------------------|
D|-------------------------------------------------------------------|
A|-5-5/8-8---------5-5/8-8---------5-5/8-8---------------------------|
E|---------5-5/8-8---------5-5/8-8---------5-5/8-8-00000000-00000000-|

Chorus
"Yeah...I dont know..."
12.
G|------------------|     |-------------------|
D|------------------|     |-------------------|
A|-00-033-3---------|--x3 |-55555555/77777777-|
E|---------00-0x-00-|     |-------------------|

Chorus
"Yeah...I wont play..."
13.
G|------------------|     |-------------------|
D|------------------|     |-------------------|
A|-00-033-3---------|--x3 |-55555555/77777777-|
E|---------00-0x-00-|     |-------------------|

14.
G|-----------------------------------------|
D|-----------------------------------------|
A|-0~--------------------------------------|
E|-----------------------------------------|

Lyrics:

Now I could lie by your side
All serrated for you
Down below cancer grows
Weeping waits inside you too
All our rage begs a stage
It's a waste of time though
And you style seems worthwhile
But this lonely road has turned

And you faded there
They pretend to care
Vultures waiting
If you don't like me
Certify Me

Yeah - I don't know
Yeah - I won't go
Yeah - Save it I'm okay

And in the sun a loaded gun
Makes for conversation
All the while in denial
It's too late for me to change

And you were unchained
Nothing more had changed
I could fake it
If you still hate me
Confiscate me

Yeah - I won't play
Yeah - Go away
Yeah - Save it I'm okay

+++++++++++++++++++++++++++++++++
| RaiLeff                       |
| Underground__Dora@Hotmail.Com |
+++++++++++++++++++++++++++++++++

            
            
Suggest correction
Creating personal tab
Creating personal tab
You can edit any tab online and save it as your Personal.

You can edit, replace or remove any tab part or add personal notes – all changes will be seen only by you.

Personal tabs can be accessed anytime from any device, even offline.
Learn more »
comments
print report bad tab
guest
You may want to rate the tab now too:
select rating
Wanna post a correction for this tab? Suggest correction