Oops, an error
Loading. Please wait.
We have an official We Are One tab made by UG professional guitarists. Check out the tab »
×
480 views 1 this week
no commentswrite comment
1 2 3 4 5
3 more votes to show rating
add to favorites
×
Save as Personal and add changes to this tab that will be seen only by you. Learn more ›
×
You can save this tab as Personal to edit and correct it or add notes. All changes will be seen only by you. Learn more »
launch autoscroll
font size
0
reset
guitar tuner
backing track
0:00
0:00
edit
Autoscroll
slow
fast
+/-
esc
set tempo
stop
Author
+++++++++++++++++++++++++++++
| The Offspring- We Are One |
+++++++++++++++++++++++++++++

Tuning: EADG

Intro.
1.
G|--------------------------|
D|--------------------------|
A|--------------------------|
E|--5~-------------------5~-|

2.
G|----------------------------------------|  x2
D|-----7/10-10-10-1010\55555555-----------|
A|-----------------------------555-777-55-|
E|--5~------------------------------------|

Break
3.
G|--------------------------------|
D|--------------------------------|
A|--------333333--------5555-33---|
E|-555555--------333333--------33-|

4.
G|--------------------------------|
D|--------------------------------|
A|--------333333---------55x--33x-|
E|-555555--------333333-----------|

Verse
"We are one with ourselves.."
5.
G|-------------------------------------------|
D|-------------------------------------------|
A|-----------333333333-----------55555-33----|
E|-555555555-----------333333333----------33-|

"Well it won't be wrong.."
6.
G|-------------------------------------------|
D|-------------------------------------------|
A|-----------333333333-----------55555-33----|
E|-555555555-----------3x-----------------33-|

Chorus
"We are one.." x2
7.
G|-------------------------------------------|
D|-------------------------------------------|
A|-----------333333333-----------55555-33----|
E|-555555555-----------333333333----------33-|

This song is pretty much all that all the time

1:42      x3
8.
G|-----------------------------------|
D|-----------------------------------|
A|---------33333333------------------|
E|-55555555--------33333333-22233333-|

9.
G|-----------------------------------------------------------|
D|--------------------------44455555-44455555-44455555555555-|
A|---------33333333------------------------------------------|
E|-55555555--------33333333----------------------------------|

Now repeat Verse & Chorus

10.
G|--------------------------------------|
D|--------------------------------------|
A|----------88888888-55555555-555-333---|
E|-55555555--------------------------33-|

Play that 'till the end :D

Lyrics

++++++++++++++++++++++++++++++++++++++++++

We are one with ourselves
We don't give a shit about anyone else
Well it won't be wrong until our day in the sun is gonna stop
The walls come tumbling down

We are one
We are free
We are headed for obscurity
We are one
We are weak
We are gonna make ourselves extinct

We are one, you know it's true
Don't fuck with us or we'll fuck with you
It's a mentality that kills the best, we better stop
The walls come tumbling down

We are one and it won't be news
When we hang ourselves with one collective noose
Well, it won't be wrong until our day in the sun is gonna stop
The walls come tumbling down

The bigger they come
The harder they fall
+++++++++++++++++++++++++++++++++++++++++

+++++++++++++++++++++++++++++++++
| RaiLeff                       |
| Underground__Dora@hotmail.com |
+++++++++++++++++++++++++++++++++

            
            
Suggest correction
Creating personal tab
Creating personal tab
You can edit any tab online and save it as your Personal.

You can edit, replace or remove any tab part or add personal notes – all changes will be seen only by you.

Personal tabs can be accessed anytime from any device, even offline.
Learn more »
Give kudos to tab author, rate the tab!
1 2 3 4 5
comments
print report bad tab
guest
You may want to rate the tab now too:
select rating
Wanna post a correction for this tab? Suggest correction