Oops, an error
Loading. Please wait.
We have an official What Happened To You tab made by UG professional guitarists. Check out the tab »
×
4,812 views 3 this week
3 commentsread comments
1 2 3 4 5
x 5
add to favorites
×
Save as Personal and add changes to this tab that will be seen only by you. Learn more ›
×
You can save this tab as Personal to edit and correct it or add notes. All changes will be seen only by you. Learn more »
launch autoscroll
font size
0
reset
how to read this tab
guitar tuner
backing track
0:00
0:00
edit
Autoscroll
slow
fast
+/-
esc
set tempo
stop
Author
Tablatura de NICO M. (nicokbbl@hotmail.com)

Artista: The Offspring
Cancion: What Happened to You?
Album: Smash (1994) 



intro
1|---------------------------------------|
2|---------------------------------------|
3|-------10*------10*-----10*-----10-9-8-|
4|-8-10--10*--10*-10*--8*-10*-10*-10-9-8-|
5|-8-10---8*--10*--8*--8*--8*-10*--8-7-6-|
6|-6--8--------8*------6*------8*--------|



1|---------------|
2|---------------|
3|-7*--------10*-|x5
4|-7*-8*-10*-10*-|
5|-5*-8*-10*--8*-|
6|----6*--8*-----|


    Before you started tokin' you used to have a brain
    But now you don't get even the simplest of things
    I can draw a little picture
    Or even use my hands
    I try to explain but you just don't understand


(coro) (chorus)
1|---------------|
2|---------------|
3|-7*----10*-----|x4
4|-7*-8*-10*-10*-|
5|-5*-8*--8*-10*-|
6|----6*------8*-|


    Man you're really losin' it
    And you've really done a lot of junk now
    But you keep on abusin' it
    What in the world happened to you


1|---------------------------------------|
2|---------------------------------------|
3|-------10*------10*-----10*-----10-9-8-|
4|-8-10--10*--10*-10*--8*-10*-10*-10-9-8-|
5|-8-10---8*--10*--8*--8*--8*-10*--8-7-6-|
6|-6--8--------8*------6*------8*--------|


1|---------------|
2|---------------|
3|-7*--------10*-|x5
4|-7*-8*-10*-10*-|
5|-5*-8*-10*--8*-|
6|----6*--8*-----|


    It's bad enough you do it to yourself
    But taking someone with you
    Well you know that's something else
    I say I'm not that kind of person
    I'm not that kind of man
    I try to explain but you just don't understand



(coro) (chorus)
1|---------------|
2|---------------|
3|-7*----10*-----|x4
4|-7*-8*-10*-10*-|
5|-5*-8*--8*-10*-|
6|----6*------8*-|


    Man you're really losin' it
    And you've really done a lot of junk now
    But you keep on abusin' it
    What in the world happened to you


1|---------------------------------------|
2|---------------------------------------|
3|-------10*------10*-----10*-----10-9-8-|
4|-8-10--10*--10*-10*--8*-10*-10*-10-9-8-|
5|-8-10---8*--10*--8*--8*--8*-10*--8-7-6-|
6|-6--8--------8*------6*------8*--------|


solo
1|-------------------------------------|
2|-------------------------------------|
3|-----------5--7--5--7b9r7--5---5--7--|
4|------5--7-------------------7-------|
5|-5--8--------------------------------|
6|-------------------------------------|

1|---------------------------------|
2|--------------------------8------|
3|-----------5--7--5--7b9r7---7--5-|
4|------5--7-----------------------|
5|-5--8----------------------------|
6|---------------------------------|

1|-------------------------------------------------------10-----|
2|-------------------------------------------------10-13----13--|
3|--------------------10--12--10--12b14r12--10--12--------------|
4|-------------10-12--------------------------------------------|
5|-------10-12--------------------------------------------------|
6|-10-13--------------------------------------------------------|


1|-10b11r10--13-10-13b15r13--15-13-15b17--15b17--15-13------------13-|
2|-----------------------------------------------------15--13--15----|
3|-------------------------------------------------------------------|
4|-------------------------------------------------------------------|
5|-------------------------------------------------------------------|
6|-------------------------------------------------------------------|

(coro) (chorus)
1|---------------|
2|---------------|
3|-7*----10*-----|x4
4|-7*-8*-10*-10*-|
5|-5*-8*--8*-10*-|
6|----6*------8*-|

    Man you're really losin' it
    And you've really done a lot of junk now
    But you keep on abusin' it
    What in the world happened to you

1|---------------------------------------|
2|---------------------------------------|
3|-------10*------10*-----10*-----10-9-8-|
4|-8-10--10*--10*-10*--8*-10*-10*-10-9-8-|
5|-8-10---8*--10*--8*--8*--8*-10*--8-7-6-|
6|-6--8--------8*------6*------8*--------|


1|---------------|
2|---------------|
3|-7*--------10*-|x5
4|-7*-8*-10*-10*-|
5|-5*-8*-10*--8*-|
6|----6*--8*-----|


    I might be sympathetic or cut a little slack
    If I thought that you were willing to give a little back
    But you do it in the morning
    You do it in the night
    You lie to refrain from just facing your life
    So I'll see you tomorrow
    You'll be gackin' up again
    I'll see you in a coffin by the time your wad is spent
    I think of all the times that I tried to lend a hand
    I try to explain but you just don't understand  


(coro) (chorus)
1|---------------|
2|---------------|
3|-7*----10*-----|x4
4|-7*-8*-10*-10*-|
5|-5*-8*--8*-10*-|
6|----6*------8*-|


    Man you're really losin' it
    And you've really done a lot of junk now
    But you keep on abusin' it
    What in the world happened to... 
    What in the world happened to...
    What in the world happened to you


final
1|------------------------------------------|
2|------------------------------------------|
3|--------10*-----10*----10*-----10-10-x-10-|
4|-8-10---10*-10*-10*-8*-10*-10*-10-10-x-10-|
5|-8-10----8*-10*--8*-8*--8*-10*--8--8-x--8-|
6|-6--8--------8*-----6*------8*------------|

            
            
Suggest correction
Creating personal tab
Creating personal tab
You can edit any tab online and save it as your Personal.

You can edit, replace or remove any tab part or add personal notes – all changes will be seen only by you.

Personal tabs can be accessed anytime from any device, even offline.
Learn more »
comments
print report bad tab
3 comments total.
0 reply
bbbbrooks1 10 Oct 26, 2008 07:04 PM

you might wanna distinguish which part to play under the verse...confused me for a couple a minutes

0 reply
davidbatten81 160 Feb 18, 2015 04:27 PM

intro/ post chorus riff should be like this...

INTRO

what in the world.........
E ||----------------|----------------------|----------------------------
B ||----------------|----------------------|-----10----10---------------
G ||----------------|----------------------|-----10----10----7-----7----
D ||--8--------8/---|--10-------10----10---|-----10----10----8-----8----
A ||--8--------8/---|--10-------10----10---|--8--8-----8--8--8-----8----
E ||--6--------6/---|--8--------8-----8----|--8-----------6--6-----6----

----------------------------|----------------------------|
-----10----10---------------|-----10----10---------------|
-----10----10----9-----9----|-----10----10----7-----7----|
-----10----10----10----10---|-----10----10----8-----8----|
--8--8-----8--8--10----10---|--8--8-----8--8--8-----8----|
--8-----------6--8-----8----|--8-----------6--6-----6----|

----------------------------||
----------------------------||
--10----9-----8-------------||
--10----9-----8-------------||
--8-----7-----6-------------||
--8-----7-----6-------------||

other wise good tab, sure its not perfect but if people can't work the song out from this tab, they should give up guitar now.

-1 reply
davidbatten81 160 Feb 18, 2015 04:30 PM

intro/ post chorus riff should be like this...

INTRO

what in the world.........
E ||----------------|----------------------|----------------------------
B ||----------------|----------------------|-----10----10---------------
G ||----------------|----------------------|-----10----10----7-----7----
D ||--8--------8/---|--10-------10----10---|-----10----10----8-----8----
A ||--8--------8/---|--10-------10----10---|--8--8-----8--8--8-----8----
E ||--6--------6/---|--8--------8-----8----|--8-----------6--6-----6----

----------------------------|----------------------------|
-----10----10---------------|-----10----10---------------|
-----10----10----9-----9----|-----10----10----7-----7----|
-----10----10----10----10---|-----10----10----8-----8----|
--8--8-----8--10-10----10---|--8--8-----8--8--8-----8----|
--8-----------8--8-----8----|--8-----------6--6-----6----|

----------------------------||
----------------------------||
--10----9-----8-------------||
--10----9-----8-------------||
--8-----7-----6-------------||
--8-----7-----6-------------||

other wise good tab, sure its not perfect but if people can't work the song out from this tab, they should give up guitar now.

guest
You may want to rate the tab now too:
select rating
Wanna post a correction for this tab? Suggest correction