Oops, an error
Loading. Please wait.
We have an official Why Dont You Get A Job tab made by UG professional guitarists. Check out the tab »
×
29,442 views 15 this week
3 commentsread comments
1 2 3 4 5
x 13
add to favorites
×
Save as Personal and add changes to this tab that will be seen only by you. Learn more ›
×
You can save this tab as Personal to edit and correct it or add notes. All changes will be seen only by you. Learn more »
launch autoscroll
font size
0
reset
guitar tuner
backing track
0:00
0:00
edit
Autoscroll
slow
fast
+/-
esc
set tempo
stop
Author
+++++++++++++++++++++++++++++++++++++++++
| The Offspring- Why Dont You Get A Job |
+++++++++++++++++++++++++++++++++++++++++


Tuning: EADG

Verse
"My friend's got a girlfriend and he hates that bitch..."
1.
G|------------------------------------------------------------------|
D|------------------------------------------------------------------|
A|------------------------------------------------------------------|
E|------------------------------------------------------------------|

"She sits on her ass, he works his hands to the bone..."
2.
G|------------------------------------------------------------------|
D|------------------------------------------------------------------|
A|-----------------1-111-111-111-11----------------3-333-333-333-33-|
E|-1-111-111-111-11----------------1-111-111-111-11-----------------|

"But she wants more dinero just to stay at home..."
3.
G|------------------------------------------------------------------|
D|------------------------------------------------------------------|
A|-----------------1-111-111-111-11--------3-333-33-----------------|
E|-1-111-111-111-11----------------1-111-11--------1-111-111-111-11-|

Chorus
"I wont pay, I wont pay ya, no way..."
4.
G|---------------------------------------------------------|
D|-33-0---0-3-0---------0-3-5-3~-3-0-----0-3~-3-0---0-3~-0-|
A|------3-------3-111-3--------------333----------3--------|--x2
E|---------------------------------------------------------|

Verse
"I guess all his money, well it isnt enough..."
5.
G|------------------------------------------------------------------|
D|------------------------------------------------------------------|
A|-----------------1-111-111-111-11----------------3-333-333-333-33-|
E|-1-111-111-111-11----------------1-111-111-111-11-----------------|

6.
G|------------------------------------------------------------------|
D|------------------------------------------------------------------|
A|-----------------1-111-111-111-11--------3-333-33-----------------|
E|-1-111-111-111-11----------------1-111-11--------1-111-111-111-11-|

Chorus
"I wont pay, I wont pay ya, no way..."
7.
G|---------------------------------------------------------|
D|-33-0---0-3-0---------0-3-5-3~-3-0-----0-3~-3-0---0-3~-0-|
A|------3-------3-111-3--------------333----------3--------|--x2
E|---------------------------------------------------------|

Bridge
"Well I guess it aint easy doing nothing at all..."
8.
G|----------------------------------------------------------|
D|------3-5-3-2-3------3-5-3-2-3----------------33-22-00----|
A|-1~-1-----------1~-1------------------2-3-2-3----------33-|
E|-------------------------------1~-1-1---------------------|

9.
G|--------------------------------------------------------|
D|------3-5-3-2-3------3-5-3-2-3--------------------------|
A|-1~-1-----------1~-1-----------------------3333-3-1-0---|
E|-------------------------------33-33-33-33------------3-|

Verse
"My friend's got a boyfriend and she hates that dick..."
10.
G|------------------------------------------------------------------|
D|------------------------------------------------------------------|
A|-----------------1-111-111-111-11----------------3-333-333-333-33-|
E|-1-111-111-111-11----------------1-111-111-111-11-----------------|

"He wants more dinero just to stay at home..."
11.
G|------------------------------------------------------------------|
D|------------------------------------------------------------------|
A|-----------------1-111-111-111-11--------3-333-33-----------------|
E|-1-111-111-111-11----------------1-111-11--------1-111-111-111-11-|

Chorus
"I wont pay, I wont pay ya, no way..."
12.
G|---------------------------------------------------------|
D|-33-0---0-3-0---------0-3-5-3~-3-0-----0-3~-3-0---0-3~-0-|
A|------3-------3-111-3--------------333----------3--------|--x3
E|---------------------------------------------------------|

"Say no way, say no way ya, no way..."
13.
G|--------------------------------------------------------------------------|
D|-33-0---0-3-0---------0-3-5-3~-3-0-----0----------------------------------|
A|------3-------3-111-3--------------333---3-333333333333-333333-3-1-0------|
E|---------------------------------------------------------------------3-1~-|

Hey
Thats something everyone can enjoy...

Lyrics:


My friend's got a girlfriend
Man he hates that bitch
He tells me every day
He says "man I really gotta lose my chick
In the worst kind of way"

She sits on her ass
He works his hands to the bone
To give her money every payday
But she wants more dinero just to stay at home
Well my friend
You gotta say

I won't pay, I won't pay ya, no way
Why don't you get a job
Say no way, say no way, no way
Why don't you get a job

I guess all his money, well it isn't enough
To keep her bill collectors at bay
I guess all his money, well it isn't enough
Cause that girl's got expensive taste

Well I guess it ain't easy doing nothing at all
But hey man free rides just don't come along
Every day

Let me tell you about my other friend now

My friend's got a boyfriend, man she hates that dick
She tells me every day
He wants more dinero just to stay at home
Well my friend
You gotta say


+++++++++++++++++++++++++++++++++
| RaiLeff                       |
| Underground__Dora@Hotmail.Com |
+++++++++++++++++++++++++++++++++

            
            
Suggest correction
Creating personal tab
Creating personal tab
You can edit any tab online and save it as your Personal.

You can edit, replace or remove any tab part or add personal notes – all changes will be seen only by you.

Personal tabs can be accessed anytime from any device, even offline.
Learn more »
comments
print report bad tab
3 comments total.
-2 reply
nobody's_hero 10 Jul 17, 2008 08:52 AM

good tab i think that is missing something but still a great tab

0 reply
Swordacool 10 Apr 23, 2009 03:52 PM

i love this song.
great tab

0 reply
Bigben9989 10 Feb 27, 2015 05:33 AM

Im agreeing with you and i accedentally hit the dislike botton sorry person but this is a great tab

Kudos to the artist

guest
You may want to rate the tab now too:
select rating
Wanna post a correction for this tab? Suggest correction