Oops, an error
Loading. Please wait.

Youre Gonna Go Far Kid Tab

version 1
version 1

Solo

Whole song

Interactive

Video

635,641 views 975 this week
55 commentsread comments
1 2 3 4 5
excellent!
x 162
add to favorites
launch autoscroll
font size
0
reset
how to read this tab
guitar tuner
Tab Pro tools
  • play this tab
  • loop segment
  • change instrument
  • show fretboard
  • metronome
Autoscroll
slow
fast
+/-
esc
set tempo
stop
Contributor
-------------------------------------------------------------------------------
                        The offspring - You're gonna go far kid
-------------------------------------------------------------------------------
Tabbed by: Ryan Armstrong
Email:

Tuning: Standard

this one of the awesome new songs from the offsprings unreleased album rise and 
fall rage and grace.
  
  Intro/verse x2
e|-----------------------------|
B|-----------------------------|
G|-----------------5-5---------|
D|-7-7-----3-3-----5-5-----5-5-|
A|-7-7-----3-3-----3-3-----5-5-|
E|-5-5-----1-1-------------3-3-|

  Verse continued 
 PM. . . . . . . . . . . . . . . . . . . . . . . . . . . . . . . . . . . .
e|-------------------------------------------------------------------------|
B|-------------------------------------------------------------------------|
G|-----------------10-10-10-10-10-10-10-10-5-5-5-5-5-5-5-5-----------------|
D|-7-7-7-7-7-7-7-7-10-10-10-10-10-10-10-10-5-5-5-5-5-5-5-5-5-5-5-5-5-5-5-5-|
A|-7-7-7-7-7-7-7-7-8--8--8--8--8--8--8--8--3-3-3-3-3-3-3-3-5-5-5-5-5-5-5-5-|
E|-5-5-5-5-5-5-5-5-----------------------------------------3-3-3-3-3-3-3-3-|

  Pre-Chorus
 PM. . . . . . . . . . . . . . . . . .
e|------------------------------------|
B|------------------------------------|
G|---------5/7-------10-------9-------|
D|-3-------5/7-(x16)-10-(x16)-9-(x12)-|
A|-3-(x16)-3/5-------8--------7-------|
E|-1----------------------------------|

  Pre-chorus lead
e|------------------------------|
B|------------------------------|
G|----9-7--------9-7------9-7-5-|
D|--7-----7----7-----7--7-------|
A|------------------------------|
E|------------------------------|
 
  continued
e|---------|
B|---------|
G|---------|
D|-5--5--5-|
A|-5--5--5-|
E|-3--3--3-|

  Chorus play x2
e|-------------------------------------------------------------------------|
B|-------------------------------------------------------------------------|
G|-----------------10-10-10-10-10-10-10-10-5-5-5-5-5-5-5-5-----------------|
D|-7-7-7-7-7-7-7-7-10-10-10-10-10-10-10-10-5-5-5-5-5-5-5-5-5-5-5-5-5-5-5-5-|
A|-7-7-7-7-7-7-7-7-8--8--8--8--8--8--8--8--3-3-3-3-3-3-3-3-5-5-5-5-5-5-5-5-|
E|-5-5-5-5-5-5-5-5-----------------------------------------3-3-3-3-3-3-3-3-|

  Solo
e|----------------------------|
B|----------------------------|
G|----------------------------|
D|----------------------------|
A|-7-7/10-7-7/10-7-7/10-15-12-|
E|----------------------------|

  play Verse

  Play Pre-chorus

  Play Chorus

  Bridge (Play straight after chorus)
e|-------------|
B|-------------|
G|-9---10---12-|
D|-9---10---12-|
A|-7---9----10-|
E|-------------|
  
  Bridge rythm
e|---------------------------------------------------------|
B|---------------------------------------------------------|
G|-12-12-12-12-12-12-12-12-5-5-5-5-5-5-5-5-9-9-9-9-9-9-9-9-|
D|-12-12-12-12-12-12-12-12-5-5-5-5-5-5-5-5-9-9-9-9-9-9-9-9-|
A|-10-10-10-10-10-10-10-10-3-3-3-3-3-3-3-3-7-7-7-7-7-7-7-7-|
E|---------------------------------------------------------|
  continued
 PM . .   . .   . .   . .
e|----------------------------------------------------------|
B|----------------------------------------------------------|
G|------------------------------------------5-5-5-5-7-7-7-7-|
D|------7-----7-----5-----5-3-3-3-3-3-3-3-3-5-5-5-5-7-7-7-7-|
A|------7-----7-----5-----5-3-3-3-3-3-3-3-3-3-3-3-3-5-5-5-5-|
E|--5-5-5-5-5-5-3-3-3-3-3-3-1-1-1-1-1-1-1-1-----------------|

  continued
e|---------------------------------------------|
B|---------------------------------------------|
G|-9-9-9-9-9-9-9-9-11-11-11-11-12-12-12-12-14\-|
D|-9-9-9-9-9-9-9-9-11-11-11-11-12-12-12-12-14\-|
A|-7-7-7-7-7-7-7-7-9--9--9--9--10-10-10-10-12\-|
E|---------------------------------------------|

  Bridge lead solo
e|---------------------------------------------------------------------|
B|---------------------------------------------------------------------|
G|---------------------------------------------------------------------|
D|-----------------------------------10--9---7---10-10/9--9\7/10-9\6/7-|
A|-10 7-10-12-10-7-10--10-7-10-12-10-----------------------------------|
E|---------------------------------------------------------------------|

e|---------------------------------------20\-|
B|---10--13----13-17-(x?)-21-(x?)-24(x?)-----|
G|-9--------12-------------------------------|
D|-------------------------------------------|
A|-------------------------------------------|
E|-------------------------------------------|
  add in any slides where they need to be
  
  base solo

  plaly chorus x4
 
  Outro Solo
e|----------------------------|
B|----------------------------|
G|----------------------------|
D|----------------------------|
A|-7-7/10-7-7/10-7-7/10-15-12-|
E|----------------------------|
  
finish on
e|-----|
B|-----|
G|-----|
D|-7-7-|
A|-7-7-|
E|-5-5-|

hope you guys like this, ill see ya later




| /  slide up
| \  slide down
| h  hammer-on
| p  pull-off
| ~  vibrato
| +  harmonic
| x  Mute note
===============================================================================
comments
print report bad tab
55 comments total. Showing first comments.
+1 reply
csoxy wrote on June 13 2008, 03:19 am

n#1, very nice

+1 reply
ThunderPX wrote on June 13 2008, 12:18 pm

Sounds perfect to me. Good job!

+1 reply
NiCKLESS wrote on June 13 2008, 12:25 pm

Very awesome, sounds accurate.

I want to post or [tab]
guest
You may want to rate the tab now too:
select rating
Please do not post tabs as comments. Select "correction" instead!