Oops, an error
Loading. Please wait.
We have an official Youre Gonna Go Far Kid tab made by UG professional guitarists. Check out the tab »
×
73,532 views 54 this week
14 commentsread comments
1 2 3 4 5
x 25
add to favorites
×
Save as Personal and add changes to this tab that will be seen only by you. Learn more ›
×
You can save this tab as Personal to edit and correct it or add notes. All changes will be seen only by you. Learn more »
launch autoscroll
font size
0
reset
how to read this tab
guitar tuner
backing track
0:00
0:00
edit
Autoscroll
slow
fast
+/-
esc
set tempo
stop
Author
Tabbed by: Clayton Pennington
Email: offspring_punk08@yahoo.com

Tuning: Standard

[Verse] (x2)
e|----------------------------|
B|----------------------------|
G|-----------5-5--------------|
D|-7-7--3-3--5-5--5-5---------|
A|-7-7--3-3--3-3--5-5---------|
E|-5-5--1-1-------3-3---------|

[Pre-Chorus 1]
(All palm muted, gradually realease on G chord)
e|-----------------------------------------------------------------|
B|-----------------------------------------------------------------|
G|-----------------10101010101010105-5-5-5-5-5-5-5-----------------|
D|-7-7-7-7-7-7-7-7-10101010101010105-5-5-5-5-5-5-5-5-5-5-5-5-5-5-5-|
A|-7-7-7-7-7-7-7-7-8-8-8-8-8-8-8-8-3-3-3-3-3-3-3-3-5-5-5-5-5-5-5-5-|
E|-5-5-5-5-5-5-5-5---------------------------------3-3-3-3-3-3-3-3-|

[Pre-Chorus 2]
(Lead)
e|----------------------------------------------|
B|----------------------------------------------|
G|---10-9---------10-9---------10-9-------9~~~--|
D|-7------7~~~--7------7~~~--7------10~~~-------|
A|----------------------------------------------|
E|----------------------------------------------|

[Pre-Chorus 2]
(All palm muted)
e|----------------------------------------------------------------------|
B|----------------------------------------------------------------------|
G|------------------7777777777777777-1010101010101010-9999999999999999--|
D|-3333333333333333-7777777777777777-1010101010101010-9999999999999999--|
A|-3333333333333333-5555555555555555-8888888888888888-7777777777777777--|
E|-1111111111111111-----------------------------------------------------|

e|---------|
B|---------|
G|---------|
D|-5--5--5-|
A|-5--5--5-|
E|-3--3--3-|

[Chorus] (x2)
e|---------------------------------------------------------------------|
B|---------------------------------------------------------------------|
G|-----------------1010101010101010-5-5-5-5-5-5-5-5--------------------|
D|-7-7-7-7-7-7-7-7-1010101010101010-5-5-5-5-5-5-5-5-5-5-5-5-55-5-55-5--|
A|-7-7-7-7-7-7-7-7-8-8-8-8-8-8-8-8--3-3-3-3-3-3-3-3-5-5-5-5-55-5-55-5--|
E|-5-5-5-5-5-5-5-5----------------------------------3-3-3-3-33-3-33-3--|
                                                            xx   xx
[Riff]
e|-------------------------|
B|-------------------------|
G|-------------------------|
D|------------------10-----|
A|-7-12-77-10-77-10----12--|
E|-------------------------|
   x    xx    xx

[Verse] (x2)
e|----------------------------|
B|----------------------------|
G|-----------5-5--------------|
D|-7-7--3-3--5-5--5-5---------|
A|-7-7--3-3--3-3--5-5---------|
E|-5-5--1-1-------3-3---------|

[Pre-Chorus 1]
(All palm muted, gradually realease on G chord)
e|-----------------------------------------------------------------|
B|-----------------------------------------------------------------|
G|-----------------10101010101010105-5-5-5-5-5-5-5-----------------|
D|-7-7-7-7-7-7-7-7-10101010101010105-5-5-5-5-5-5-5-5-5-5-5-5-5-5-5-|
A|-7-7-7-7-7-7-7-7-8-8-8-8-8-8-8-8-3-3-3-3-3-3-3-3-5-5-5-5-5-5-5-5-|
E|-5-5-5-5-5-5-5-5---------------------------------3-3-3-3-3-3-3-3-|

[Pre-Chorus 2]
(Lead)
e|----------------------------------------------|
B|----------------------------------------------|
G|---10-9---------10-9---------10-9-------9~~~--|
D|-7------7~~~--7------7~~~--7------10~~~-------|
A|----------------------------------------------|
E|----------------------------------------------|

[Pre-Chorus 2]
(All palm muted)
e|----------------------------------------------------------------------|
B|----------------------------------------------------------------------|
G|------------------7777777777777777-1010101010101010-9999999999999999--|
D|-3333333333333333-7777777777777777-1010101010101010-9999999999999999--|
A|-3333333333333333-5555555555555555-8888888888888888-7777777777777777--|
E|-1111111111111111-----------------------------------------------------|

e|---------|
B|---------|
G|---------|
D|-5--5--5-|
A|-5--5--5-|
E|-3--3--3-|

[Chorus] (x2)
e|---------------------------------------------------------------------|
B|---------------------------------------------------------------------|
G|-----------------1010101010101010-5-5-5-5-5-5-5-5--------------------|
D|-7-7-7-7-7-7-7-7-1010101010101010-5-5-5-5-5-5-5-5-5-5-5-5-55-5-55-5--|
A|-7-7-7-7-7-7-7-7-8-8-8-8-8-8-8-8--3-3-3-3-3-3-3-3-5-5-5-5-55-5-55-5--|
E|-5-5-5-5-5-5-5-5----------------------------------3-3-3-3-33-3-33-3--|
                                                            xx   xx
[Bridge/Solo Rhythm]
e|-----------------------------------------------------------------|
B|-----------------------------------------------------------------|
G|-----9~~-1010101010101010-55555555-99999999----------------------|
D|-7~~-9~~-1010101010101010-55555555-99999999-77-7-77-7-55-5-55-5--|
A|-7~~-7~~-8-8-8-8-8-8-8-8--33333333-77777777-77-7-77-7-55-5-55-5--|
E|-5~~----------------------------------------55-5-55-5-33-3-33-3--|
                                              xx   xx   xx   xx

e|--------------------------------------------------|
B|--------------------------------------------------|
G|-1010101010101010-5555-7777-99999999--------------|
D|-1010101010101010-5555-7777-99999999-2222-5555-7--|
A|-8-8-8-8-8-8-8-8--3333-5555-77777777-2222-5555-7--|
E|-------------------------------------0000-3333-5--|

[Solo]
e|--------------------------------------------------------|
B|--------------------------------------------------------|
G|-9-12-9-12-14-12-9-12--12-9-12-14-12-12/17-16-13-16-17--|
D|-x-x--x-x--x--x--x-x---x--x-x--x--x--x--x--x--x--x--x---|
A|-7-10-7-10-12-10-7-10--10-7-10-12-10-10/15-14-11-14-15--|
E|--------------------------------------------------------|

e|---------------------------------------------------------------|
B|---------------------------------------------------------------|
G|-17\16-16-16\14----14-17-17----17-17-21-2121-2121-21-2121-2121-|
D|-x--x--x--x--x--15----------17---------------------------------|
A|-15\14-14-14\12------------------------------------------------|
E|---------------------------------------------------------------|

e|---------------19-1919-1919-20~~~--|
B|-20-2020-2020----------------------|
G|-----------------------------------|
D|-----------------------------------|
A|-----------------------------------|
E|-----------------------------------|

e|---------|
B|---------|
G|---------|
D|-5--5--5-|
A|-5--5--5-|
E|-3--3--3-|

[Chorus] (x4)
e|---------------------------------------------------------------------|
B|---------------------------------------------------------------------|
G|-----------------1010101010101010-5-5-5-5-5-5-5-5--------------------|
D|-7-7-7-7-7-7-7-7-1010101010101010-5-5-5-5-5-5-5-5-5-5-5-5-55-5-55-5--|
A|-7-7-7-7-7-7-7-7-8-8-8-8-8-8-8-8--3-3-3-3-3-3-3-3-5-5-5-5-55-5-55-5--|
E|-5-5-5-5-5-5-5-5----------------------------------3-3-3-3-33-3-33-3--|
                                                            xx   xx
[Riff]
e|-------------------------|
B|-------------------------|
G|-------------------------|
D|------------------10-----|
A|-7-12-77-10-77-10----12--|
E|-------------------------|
   x    xx    xx


************************************

| ~  Vibrato
| /  Slide up
| x  Dead note
| \  Slide down

************************************
Suggest correction
Creating personal tab
Creating personal tab
You can edit any tab online and save it as your Personal.

You can edit, replace or remove any tab part or add personal notes – all changes will be seen only by you.

Personal tabs can be accessed anytime from any device, even offline.
Learn more »
comments
print report bad tab
14 comments total. Showing first comments.
+4 reply
ut1390 10 Jul 25, 2008 08:58 PM

Ignore that.^ This is a really good tab. Unlike in version 1, you got the pre-chorus lead part correct, you actually noticed the double 553 palm-muted part in the chorus, and you have an easier way to play the post-chorus riff, although I don't think you play the first 7-12, and the 2nd 12 could be a 7 on the D-string. Everything else is right up until the bridge solo, though no one else has that right.

+4 reply
changgang666 20 Aug 26, 2008 05:16 PM

fin gurl2006 doesn't know what the F*** she's talking about..this tab is very close man...good job don't give up tabbing!!!

+1 reply
tumad-dre-ng 30 Sep 21, 2008 08:30 PM

your tab is almos perfect, i think that it's better than the version one

guest
You may want to rate the tab now too:
select rating
Wanna post a correction for this tab? Suggest correction