Oops, an error
Loading. Please wait.
We have an official Youre Gonna Go Far Kid tab made by UG professional guitarists. Check out the tab »
×
11,476 views 9 this week
2 commentsread comments
1 2 3 4 5
x 6
add to favorites
×
Save as Personal and add changes to this tab that will be seen only by you. Learn more ›
×
You can save this tab as Personal to edit and correct it or add notes. All changes will be seen only by you. Learn more »
launch autoscroll
font size
0
reset
how to read this tab
guitar tuner
backing track
0:00
0:00
edit
Autoscroll
slow
fast
+/-
esc
set tempo
stop
Difficulty
Tabbed by: Jared Eckhardt
Email:x-jimmy-x@hotmail.com

Tuning: Standard

From their newest album.

  Intro/verse
e|-----------------------------|
B|-----------------------------|
G|-----------------5-5---------|
D|-7-7-----3-3-----5-5-----5-5-|
A|-7-7-----3-3-----3-3-----5-5-|
E|-5-5-----1-1-------------3-3-|

  Verse continued
 PM. . . . . . . . . . . . . . . . . . . . . . . . . . . . . . . . . . . .
e|-------------------------------------------------------------------------|
B|-------------------------------------------------------------------------|
G|-----------------10-10-10-10-10-10-10-10-5-5-5-5-5-5-5-5-----------------|
D|-7-7-7-7-7-7-7-7-10-10-10-10-10-10-10-10-5-5-5-5-5-5-5-5-5-5-5-5-5-5-5-5-|
A|-7-7-7-7-7-7-7-7-8--8--8--8--8--8--8--8--3-3-3-3-3-3-3-3-5-5-5-5-5-5-5-5-|
E|-5-5-5-5-5-5-5-5-----------------------------------------3-3-3-3-3-3-3-3-|

  Pre-Chorus
 PM. . . . . . . . . . . . . . . . . .
e|------------------------------------|
B|------------------------------------|
G|---------7-------10-------9---------|
D|-3-------7-(x16)-10-(x16)-9-(x12)---|
A|-3-(x16)-5-------8--------7---------|
E|-1----------------------------------|

  Pre-chorus lead
e|-------------------------------------------|
B|-------------------------------------------|
G|----10-9--------10-9------10-9-------10-9--|
D|--7------7----7------7--7------10--7-------|
A|-------------------------------------------|
E|-------------------------------------------|

  continued
e|---------|
B|---------|
G|---------|
D|-5--5--5-|
A|-5--5--5-|
E|-3--3--3-|

  Chorus
e|-------------------------------------------------------------------------|
B|-------------------------------------------------------------------------|
G|-----------------10-10-10-10-10-10-10-10-5-5-5-5-5-5-5-5-----------------|
D|-7-7-7-7-7-7-7-7-10-10-10-10-10-10-10-10-5-5-5-5-5-5-5-5-5-5-5-5-5-5-5-5-|
A|-7-7-7-7-7-7-7-7-8--8--8--8--8--8--8--8--3-3-3-3-3-3-3-3-5-5-5-5-5-5-5-5-|
E|-5-5-5-5-5-5-5-5-----------------------------------------3-3-3-3-3-3-3-3-|

  Chorus Add-On
e|----------------------------|
B|----------------------------|
G|----------------------------|
D|----------------------10-7--|
A|-7-7/10-7-7/10-7-7/10-------|
E|----------------------------|

  Solo
e|--------------------------------------------------------------------7777-|
B|---------------------------------------------------------------9999------|
G|-------------------------------------------------------99999999----------|
D|--5-3-5-7-5-3-5--5-3-5-7-5-10~9~6~9-10~9~7~3-7-10~5-10-------------------|
A|-------------------------------------------------------------------------|
E|-------------------------------------------------------------------------|


finish on
e|-----|
B|-----|
G|-----|
D|-7-7-|
A|-7-7-|
E|-5-5-|

Vibrato's on solo's are just what I play, so mess around with em, and I slide my 
but play the note too, so I didn't add the slides. Email me for questions with the subject 
gonna go far, kid". Thanks


| /  slide up
| \  slide down
| h  hammer-on
| p  pull-off
| ~  vibrato
| +  harmonic
| x  Mute note
===============================================================================

            
            
Suggest correction
Creating personal tab
Creating personal tab
You can edit any tab online and save it as your Personal.

You can edit, replace or remove any tab part or add personal notes – all changes will be seen only by you.

Personal tabs can be accessed anytime from any device, even offline.
Learn more »
comments
print report bad tab
2 comments total.
-2 reply
ut1390 10 Jul 25, 2008 08:56 PM

I'm pretty sure you just copied and pasted everything from version 1 but made a couple slight changes to a couple parts, and redid the bridge solo worse than the original. Nice. At least you got the "Pre-chorus lead" right.

0 reply
sumbeezy 10 Mar 07, 2009 01:38 PM

I think this is pretty legit

guest
Wanna post a correction for this tab? Suggest correction