Oops, an error
Loading. Please wait.
We have an official Youre Gonna Go Far Kid tab made by UG professional guitarists. Check out the tab »
×
16,305 views 1 this week
2 commentsread comments
1 2 3 4 5
1 last vote to show rating
add to favorites
×
Save as Personal and add changes to this tab that will be seen only by you. Learn more ›
×
You can save this tab as Personal to edit and correct it or add notes. All changes will be seen only by you. Learn more »
launch autoscroll
font size
0
reset
how to read this tab
guitar tuner
backing track
0:00
0:00
edit
Autoscroll
slow
fast
+/-
esc
set tempo
stop
Author
Song: You’re Gonna Go Far, Kid
Artist: The Offspring
Parts Tabbed: Lead Guitar
Tuning: Standard
b       Bend
h       Hammer-on
-----------------------------------------------------------------------
Intro: 
E|---------------------------------|--------------------------------|
B|---------------------------------|--------------------------------|
G|---------------------------------|-5-5----------------------------|2x
D|-7-7-------------3-3-------------|-5-5-------------5-5------------|
A|-7-7-------------3-3-------------|-3-3-------------5-5------------|
E|-5-5-------------1-1-------------|-----------------3-3------------|
   1   2   3   4   1   2   3   4     1   2   3   4   1   2   3   4   
-----------------------------------------------------------------------
1st Verse: Palm Muted
E|---------------------------------|--------------------------------|
B|---------------------------------|--------------------------------|
G|-----------------1010101010101010|-5-5-5-5-5-5-5-5----------------|1x
D|-7-7-7-7-7-7-7-7-1010101010101010|-5-5-5-5-5-5-5-5-5-5-5-5-5-5-5-5|
A|-7-7-7-7-7-7-7-7-8-8-8-8-8-8-8-8-|-3-3-3-3-3-3-3-3-5-5-5-5-5-5-5-5|
E|-5-5-5-5-5-5-5-5-----------------|-----------------3-3-3-3-3-3-3-3|
   1   2   3   4   1   2   3   4     1   2   3   4   1   2   3   4   
-----------------------------------------------------------------------
Pre-Chorus: 
Guitar #1:
E|---------------------------------|--------------------------------|
B|---------------------------------|--------------------------------|
G|---------10--9-------------------|---------10--9------------------|1x
D|-------7---------7---------------|-------7---------7--------------|
A|---------------------------------|--------------------------------|
E|---------------------------------|--------------------------------|
   1   2   3   4   1   2   3   4     1   2   3   4   1   2   3   4   
E|---------------------------------|--------------------------------|
B|---------------------------------|--------------------------------|
G|---------10--9-------------------|--------------------------------|1x
D|-------7---------7-------------8-|h9------------------------------|
A|---------------------------------|--------------------------------|
E|---------------------------------|--------------------------------|
   1   2   3   4   1   2   3   4     1   2   3   4   1   2   3   4  
Guitar #2: Palm Muted
E|---------------------------------|--------------------------------|
B|---------------------------------|--------------------------------|
G|---------------------------------|-7-7-7-7-7-7-7-7-7-7-7-7-7-7-7-7|1x
D|-3-3-3-3-3-3-3-3-3-3-3-3-3-3-3-3-|-7-7-7-7-7-7-7-7-7-7-7-7-7-7-7-7|
A|-3-3-3-3-3-3-3-3-3-3-3-3-3-3-3-3-|-5-5-5-5-5-5-5-5-5-5-5-5-5-5-5-5|
E|-1-1-1-1-1-1-1-1-1-1-1-1-1-1-1-1-|--------------------------------|
   1       2       3       4         1       2       3       4     
E|---------------------------------|--------------------------------|
B|---------------------------------|--------------------------------|
G|-10101010101010101010101010101010|-9-9-9-9-9-9-9-9-9-9-9-9-9-9-9-9|1x
D|-10101010101010101010101010101010|-9-9-9-9-9-9-9-9-9-9-9-9-9-9-9-9|
A|-8-8-8-8-8-8-8-8-8-8-8-8-8-8-8-8-|-7-7-7-7-7-7-7-7-7-7-7-7-7-7-7-7|
E|---------------------------------|--------------------------------|
   1       2       3       4         1       2       3       4     
-----------------------------------------------------------------------
Chorus Lead-In
E|----------------|
B|----------------|
G|----------------|1x
D|-5---5---5------|
A|-5---5---5------|
E|-3---3---3------|
   1   2   3   4      
-----------------------------------------------------------------------
Chorus:
E|---------------------------------|--------------------------------|
B|---------------------------------|--------------------------------|
G|-----------------1010101010101010|-5-5-5-5-5-5-5-5----------------|2x
D|-7-7-7-7-7-7-7-7-1010101010101010|-5-5-5-5-5-5-5-5-5-5-5-5---5---5|
A|-7-7-7-7-7-7-7-7-8-8-8-8-8-8-8-8-|-3-3-3-3-3-3-3-3-5-5-5-5---5---5|
E|-5-5-5-5-5-5-5-5-----------------|-----------------3-3-3-3-xx3-xx3|
   1   2   3   4   1   2   3   4     1   2   3   4   1   2   3   4   
-----------------------------------------------------------------------
1st Chorus Outro:
E|--------------------------------|
B|--------------------------------|
G|-------------------------10—7---|1x
D|-7-7-10--7-7-10--7-7-10---------|
A|--------------------------------|
E|--------------------------------|
   1       2       3       4       
-----------------------------------------------------------------------
Repeat: Intro, 1st Verse, Pre-Chorus, Chorus Lead-In, Chorus
-----------------------------------------------------------------------
2nd Chorus Outro:
E|---------------------------------|
B|---------------------------------|
G|-----------------9---------------|1x
D|-7---------------9---------------|
A|-7---------------7---------------|
E|-5-------------------------------|
   1   2   3   4   1   2   3   4    
-----------------------------------------------------------------------
Solo:
Guitar #1:
E|--------------------------------|---------------------------------|
B|--------------------------------|-------------------------13------|
G|-----12--10--12--12b-----10--12-|-----12--10--12--12b-------------|1x
D|--------------------------------|---------------------------------|
A|--------------------------------|---------------------------------|
E|--------------------------------|---------------------------------|
   1       2       3       4        1       2       3       4       
E|--------------------------------|---------------------------------|
B|-12----------9-----------12-----|-17----------151415----------1312|
G|--------------------------------|---------------------------------|1x
D|--------------------------------|---------------------------------|
A|--------------------------------|---------------------------------|
E|--------------------------------|---------------------------------|
   1       2       3       4        1       2       3       4       
E|--------------------------------|---------------------------------|
B|-13----------------------10-----|-13----------15----------13------|
G|-------------10-----------------|---------------------------------|1x
D|--------------------------------|---------------------------------|
A|--------------------------------|---------------------------------|
E|--------------------------------|---------------------------------|
   1       2       3       4        1       2       3       4       
E|--------------------------------|-161616161616161919191919191919--|
B|-171717171717171717171717171717-|---------------------------------|1x
G|--------------------------------|---------------------------------|
D|--------------------------------|---------------------------------|
A|--------------------------------|---------------------------------|
E|--------------------------------|---------------------------------|
   1       2       3       4         1       2       3       4     
Guitar #2: Repeat Chorus twice  
-----------------------------------------------------------------------
3rd Verse: 
E|-20/----------------------------|--------------------------------|
B|--------------------------------|--------------------------------|
G|--------------------------------|--------------------------------|1x
D|--------------------------------|--------------------------------|
A|--------------------------------|--------------------------------|
E|--------------------------------|--------------------------------|
   1   2   3   4   1   2   3   4     1   2   3   4   1   2   3   4   
-----------------------------------------------------------------------
Repeat: Chorus Lead In, Chorus x2, 1st Chorus Outro
-----------------------------------------------------------------------
Outro:
E|----------------|
B|----------------|
G|----------------|1x
D|-7-7------------|
A|-7-7------------|
E|-5-5------------|
   1   2   3   4      

Suggest correction
Creating personal tab
Creating personal tab
You can edit any tab online and save it as your Personal.

You can edit, replace or remove any tab part or add personal notes – all changes will be seen only by you.

Personal tabs can be accessed anytime from any device, even offline.
Learn more »
Give kudos to tab author, rate the tab!
1 2 3 4 5
comments
print report bad tab
2 comments total.
0 reply
Dark Jedi 31 Jan 01, 2010 08:14 PM

A few corrections to this tab. If you listen carefully you will be able to hear it.

Pre-Chorus:
Guitar #1:
E|---------------------------------|--------------------------------|
B|---------------------------------|--------------------------------|
G|---------10--9-------------------|---------10--9------------------|1x
D|-------7---------7---------------|-------7---------7--------------|
A|---------------------------------|--------------------------------|
E|---------------------------------|--------------------------------|
1 2 3 4 1 2 3 4 1 2 3 4 1 2 3 4
E|---------------------------------|--------------------------------|
B|---------------------------------|--------------------------------|
G|---------10--9-------------------|9-------------------------------|1x
D|-------7---------10--------------|--------------------------------|
A|---------------------------------|--------------------------------|
E|---------------------------------|--------------------------------|
1 2 3 4 1 2 3 4 1 2 3 4 1 2 3 4

Solo:
Guitar #1:
E|--------------------------------|---------------------------------|
B|--------------------------------|-------------------------13------|
G|-----12--10--12--12b-----10--12-|-----12—-9---12--12b-------------|1x
D|--------------------------------|---------------------------------|
A|--------------------------------|---------------------------------|
E|--------------------------------|---------------------------------|
1 2 3 4 1 2 3 4
E|--------------------------------|---------------------------------|
B|-12----------------------12-----|-13----------121012----------10--|
G|--------------13----------------|-------------------------------12|1x
D|--------------------------------|---------------------------------|
A|--------------------------------|---------------------------------|
E|--------------------------------|---------------------------------|
1 2 3 4 1 2 3 4
E|--------------------------------|---------------------------------|
B|-10----------------------10-----|-13----------------------13------|
G|-------------10-----------------|-------------12------------------|1x
D|--------------------------------|---------------------------------|
A|--------------------------------|---------------------------------|
E|--------------------------------|---------------------------------|
1 2 3 4 1 2 3 4
E|--------------------------------|-161616161616161919191919191919--|
B|-121212121212121212121212121212-|---------------------------------|1x
G|--------------------------------|---------------------------------|
D|--------------------------------|---------------------------------|
A|--------------------------------|---------------------------------|
E|--------------------------------|---------------------------------|
1 2 3 4 1 2 3 4
E|-20/----------------------------|--------------------------------|
B|--------------------------------|--------------------------------|
G|--------------------------------|--------------------------------|1x
D|--------------------------------|--------------------------------|
A|--------------------------------|--------------------------------|
E|--------------------------------|--------------------------------|
1 2 3 4 1 2 3 4 1 2 3 4 1 2 3 4

Regards, Dark Jedi

0 reply
Dark Jedi 31 Jan 01, 2010 08:16 PM

The timing in my previous post has been destroyed, but the rest is where it should be.

guest
You may want to rate the tab now too:
select rating
Wanna post a correction for this tab? Suggest correction