Oops, an error
Loading. Please wait.

Bitter Water intro tab

871 views 21 this week
2 commentsread comments
1 2 3 4 5
x 3
add to favorites
×
Save as Personal and add changes to this tab that will be seen only by you. Learn more ›
×
You can save this tab as Personal to edit and correct it or add notes. All changes will be seen only by you. Learn more »
launch autoscroll
font size
0
reset
how to read this tab
guitar tuner
edit
Autoscroll
slow
fast
+/-
esc
set tempo
stop
-------------------------------------------------------------------------------
                             BITTER WATER- THE OH HELLOS
-------------------------------------------------------------------------------
Tabbed by: carolinec13
E-mail: linabell13@gmail.com

Tuning: standard, capo 3

intro

    C
e|---------------------------------------------------------------------------|
B|--1------------------------------------------------------------------------|
G|----2-0-2------------------------------------------------------------------|
D|----------2p0----0-2-0-----------------------------------------------------|
A|--------------3--------3p0-3-----------------------------------------------|
E|---------------------------------------------------------------------------|

repeat, also used periodically throughout the song if you listen to it


************************************

| /   slide up
| \   slide down
| h   hammer-on
| p   pull-off
| ~   vibrato
| +   harmonic
| x   Mute note
| b   Bend
| pb  Pre-bend
| br  Bend release
| pbr Pre-bend release
| brb Bend release bend

************************************

            
            
Suggest correction
Creating personal tab
Creating personal tab
You can edit any tab online and save it as your Personal.

You can edit, replace or remove any tab part or add personal notes – all changes will be seen only by you.

Personal tabs can be accessed anytime from any device, even offline.
Learn more »
Give kudos to tab author, rate the tab!
1 2 3 4 5
comments
print report bad tab
2 comments total.
0 reply
BanjoJude27 78 Sep 01, 2017 02:41 PM

Love this song Thanks for the intro!

0 reply
BanjoJude27 78 Sep 01, 2017 02:42 PM

The beginning of a great song

guest
You may want to rate the tab now too:
select rating
Wanna post a correction for this tab? Suggest correction