Oops, an error
Loading. Please wait.

Hello My Old Heart Chords

version 1
version 1

Whole song

146,340 views 537 this week
14 commentsread comments
1 2 3 4 5
x 148
add to favorites
launch autoscroll
font size
0
reset
transpose
0
reset
display chords
guitar tuner
Autoscroll
slow
fast
+/-
esc
set tempo
stop
Help us to improve Ultimate-Guitar.com Take our survey!
×
Author
Difficulty
novice
Hello My Old Heart
The Oh Hello's
Tabbed by: isenheimer
E-mail: isenheimer@hotmail.com

Tuning: Standard


[Intro]

Riff 1

   Am
e|--------------------------0--------------------------------0---------------|
B|-----------1------------------------------1--------------------------------|
G|------0h2------------0h2-------------0h2-------------0h2-------------------|
D|---------------------------------------------------------------------------|
A|---0-------------0------0---------0-----0---------0-----0------------------|
E|---------------------------------------------------------------------------|
   Am
e|--------------------------0--------------------------------0---------------|
B|-----------1------------------------------1--------------------------------|
G|------0h2------------0h2-------------0h2-------------0h2-------------------|
D|---------------------------------------------------------------------------|
A|---0-----0-------0------0---------0-----0---------0-----0------------------|
E|---------------------------------------------------------------------------|

Riff 2
Ba Dum Ba's

     Am            C                F               F
e|--------------------------0------------------------------------------------| 
B|-----------1------------------------------1---------------1----------------|
G|------0h2------------0h2-------------0h2-------------0h2-------------------|
D|----------------------------------3-----3---------3-----3------------------|
A|---0-----0-------3------3--------------------------------------------------|
E|---------------------------------------------------------------------------|
     Am             C               F               F
e|--------------------------0------------------------------------------------| X2
B|-----------1------------------------------1--------------------------------|
G|------0h2------------0h2-------------0h2----------0h2p0--5--2p0--2---------|
D|----------------------------------3-----3----------------------------------|
A|---0-----0-------3------3--------------------------------------------------|
E|---------------------------------------------------------------------------|


Continue playing Riff 2 through the first verse


[Verse]

Am        C
Hello my old heart 
F            F
How have you been 
Am             C            F       F
Are you still there inside my chest? 
Am           C
I've been so worried 
F              F
You've been so still 
Am     C          F     F
Barely beating at all 


[Chorus]

G   Am       C                  F   
Oh,    don't leave me here alone 
       C                  F            
Don't tell me that we've grown 
                   G           Am
For having loved a little while 
G   Am         C               F
Oh,    I don't want to be alone 
     C                F
I want to find a home 
               G                Dm
And I want to share it with you 


[Verse]

Am        C
Hello my old heart 
F            F
It's been so long 
Am         C           F       F
Since I've given you away 
          Am     C            F
And every day I add another stone 
F              Am           C          
To the walls I built around you 
             F      
To keep you safe 


[Chorus]

G   Am       C                  F   
Oh,    don't leave me here alone 
       C                  F            
Don't tell me that we've grown 
                   G           Am
For having loved a little while 
G   Am         C               F
Oh,    I don't want to be alone 
     C                F
I want to find a home 
               G                Dm
And I want to share it with you 


[Verse]

Am        C
Hello my old heart 
F            F
How have you been? 
Am        C       F            F
How is it, being locked away? 
Am               C
Well don't you worry 
F                  F 
In there, you're safe 
         Am                  C
And it's true, you'll never beat 
            F            F
But you'll never break 


Two Guitars sound best here. One strums a C chords while the other plays these chords. 


[Bridge]

Dm            C
Nothing lasts forever 
     Dm                C
Some things aren't meant to be 
      Dm                  Am
But you'll never find the answer 
           Am          G
Until you set your old heart free 
          F            F
Until you set your old heart free


[Outro]

C F C F Am F C


Always open to suggestions or corrections.
Suggest correction
comments
print report bad tab
14 comments total. Showing first comments.
0 reply
wischnewsky379 10 Mar 03, 2013 11:44 PM

Can you make chords and tabs for a ukulele with this song?

0 reply
isenheimer 152 Mar 22, 2013 01:20 AM

@wischnewsky379 I sent you a message with the uke tab I made. I'm not really sure I can post a uke tab on UG so there you go. Enjoy!

0 reply
ae2011 10 Jun 04, 2013 06:56 PM

Could you maybe send me the tab for ukulele if you don't mind?

guest
You may want to rate the tab now too:
select rating
Wanna post a correction for this tab? Suggest correction