Oops, an error
Loading. Please wait.

Hello My Old Heart Tab

15,951 views 36 this week
2 commentsread comments
1 2 3 4 5
excellent!
x 15
add to favorites
launch autoscroll
font size
0
reset
how to read this tab
guitar tuner
Autoscroll
slow
fast
+/-
esc
set tempo
stop
Help us to improve Ultimate-Guitar.com Take our survey!
×
Difficulty
intermediate
Intro: Am
|--------------------0--------| X4
|----------1------------------|
|---0h2--------0h2------------|
|-----------------------------|
|-0-----0----0-----0----------|
|-----------------------------|

Main Verse pattern: Am, C, F
|--------------------0-------------------------------------------0---|
|----------1---------------------1---------1------------1------------|
|---0h2--------0h2----------0h2-------0h2---------0h2--------0h2-----|
|-------------------------3----3----3----3---------------------------|
|-0-----0----3-----3----------------------------0-----0----3----3----|
|--------------------------------------------------------------------|

|---------------------------|
|--------1--------1---------|
|---0h2------0h2p0---0h2----|
|-3----3---3--------2-------|
|---------------------------|
|---------------------------|

Chorus: G, Am, C, F, C, F, G, Am
        G, Am, C, F, C, F, G, Dm
(play around with these shapes)
|----------------------12------------------12-------------------------------|
|----12------13------------------10--------------10---------12----------13--|
|-----12------14--------12--------10--------12----10---------12----------14-|
|--------------------10----10------------10---------------------------------|
|-10----10--12---12------------8----8-----------8---8---10------10---12-----|
|---------------------------------------------------------------------------|

|----------------------12------------------12-----------------------------5-|
|----12------13------------------10--------------10---------12-----------6--|
|-----12------14--------12--------10--------12----10---------12----------7--|
|--------------------10----10------------10-----------------------------7---|
|-10----10--12---12------------8----8-----------8---8---10------10-----5----|
|---------------------------------------------------------------------------|

Fill 1:
|--x----x----x--x--x--x----|
|--x----x----x--x--x--x----|
|--x----x----x--x--x--x----|
|--x----x----x--x--x--x----|
|--x----x----x--x--x--x----|
|--x----x----x--x--x--12\--|

Verse: (strumming)Am, C, F
|-0----0----0------------------|
|-1----1----1------------------|
|-2----0----2------------------|
|-2----2----3------------------| X4
|-0----3----3------------------|
|------------------------------|

Chorus: (strumming)G, Am, C, F, C, F, G, Am
        G, Am, C, F, C, F, G, Dm

|-3--0--0--1--0--1--3--0----|
|-3--1--1--1--1--1--3--1----|
|-0--2--0--2--0--2--0--2----|
|-0--2--2--3--2--3--0--2----|
|-2--0--3--3--3--3--2--0----|
|-3-----------------3-------|

|-3--0--0--1--0--1--3--1-----|
|-3--1--1--1--1--1--3--3-----|
|-0--2--0--2--0--2--0--2-----|
|-0--2--2--3--2--3--0--0-----|
|-2--0--3--3--3--3--2--------|
|-3-----------------3--------|


Fill 2:
|-0-------3--3----3--3------3--3-------3---3---|
|-1-----5---5---5---5----5----5-----5----5-----|
|-2---2-------2--------2---------2-----------2-|
|-2--------------------------------------------|
|-0--------------------------------------------|
|----------------------------------------------|

Verse: A, C, F
(finger pick how you want)
|-0----0----0------------------|
|-1----1----1------------------|
|-2----0----2------------------|
|-2----2----3------------------| X4
|-0----3----3------------------|
|------------------------------|

Bridge:(electric guitar plays a C5 in the background[pattern 1], while other guitar 
plays the chords [pattern 2])

[Pattern 1],C
|----------|
|----------|
|-5-5-5-5--|
|-5-5-5-5--|
|-3-3-3-3--| (keep repeating)
|----------|

[Pattern 2],F,C,F,C,F,Am,G,F,C
(single strum)
|-0-0--0-0--0-0--0-3--1-0--|
|-1-1--1-1--1-1--1-3--1-1--|
|-2-0--2-0--2-2--2-0--2-0--|
|-3-2--3-2--3-2--2-0--3-2--|
|-3-3--3-3--3-0--0-2--3-3--|
|------------------3-------|
"Nothing Lasts Forever, Somethings..."

Buildup: C, Am (listen for the timing in the song to switch between chords)
(Keep playing this even when the drums come in)

|--0--0---------|
|--1--1---------|
|--0--2---------|
|--2--2---------|
|--3--0---------|
|---------------|

Outro: (strumming fast)G, Am, C, F, C, F, G, Am
        G, Am, C, F, C, F, G, Dm

|-3--0--0--1--0--1--3--0----|
|-3--1--1--1--1--1--3--1----|
|-0--2--0--2--0--2--0--2----|
|-0--2--2--3--2--3--0--2----|
|-2--0--3--3--3--3--2--0----|
|-3-----------------3-------|

|-3--0--0--1--0--1--3------|
|-3--1--1--1--1--1--3------|
|-0--2--0--2--0--2--0------|
|-0--2--2--3--2--3--0------|
|-2--0--3--3--3--3--2------|
|-3-----------------3------|

(let this Dm get cut off at the end)
|-1-|
|-3-|
|-2-|
|-0-|
|---|
|---|

Tabbed by Colin Smyk
Suggest correction
What's this?
You can suggest a correction to this tab. Community and Mods will review your correction and vote to approve or reject it.
comments
print report bad tab
2 comments total.
0 reply
avec0206 11 wrote on May 25 2015, 02:59 pm

Great tab, it helped a ton. I see no mistakes, thanks for putting the time in to share this with us. One of my favorite songs

+1 reply
Dsmc2010 14 wrote on April 5 2016, 10:43 am

Great tab!!! Only thing I see is that I think
------------------|
--------1---------|
---0h2p0---0h2----|
-3--------2-------| should be
------------------|
------------------|

------------------|
--------1---------|
---0h2p0--2-0h2---|
-3----------------|
------------------|
------------------|

guest
You may want to rate the tab now too:
select rating
Please do not post tabs as comments. Select "correction" instead!