Oops, an error
Loading. Please wait.

I Have Made Mistakes Tab

version 1
version 1

Whole song

  • Full song with simplified tabs.
145 views 6 this week
no commentswrite comment
1 2 3 4 5
1 last vote to show rating
add to favorites
launch autoscroll
font size
0
reset
how to read this tab
guitar tuner
Autoscroll
slow
fast
+/-
esc
set tempo
stop
Help us to improve Ultimate-Guitar.com Take our survey!
×
Author
Difficulty
Capo
intermediate
6th fret
About this tab version
Full song with simplified tabs. Was this info helpful? Yes No
[Intro]

e|---0-------0-------0-------0---|---0-------0-------0-------0---------------|
B|-----1-------1-------1-------1-|-----1-------1-------1-------1-------------|
G|-------------------------------|-------------------------------------------|
D|-3-------3-------3-------3-----|-------------------------------------------|
A|-------------------------------|-3-------3-------3-------3-----------------|
E|-------------------------------|-------------------------------------------|

e|---0-------0-------0-------0---|---3-------3-------------------------------|
B|-----1-------1-------1-------1-|-----3-------3-------3/5--3--1-------------|
G|-------------------------------|-0-------0-------0--------------2--0-------|
D|-------------------------------|-------------------------------------------|
A|-0-------0-------0-------0-----|-------------------------------------------|
E|-------------------------------|-------------------------------------------|

e|---0-------0-------0-------0---|---0-------0-------0-------0---------------|
B|-----1-------1-------1-------1-|-----1-------1-------1-------1-------------|
G|-------------------------0-----|-------------------------------------------|
D|-3-------3-------3-------------|-------------------------0-----------------|
A|-------------------------------|-3-------3-------3-------------------------|
E|-------------------------------|-------------------------------------------|

e|---0-------0-------0-------0---|---3-------3-------3-------3---------------|
B|-----1-------1-------1-------1-|-----3-------3-------3-------3-------------|
G|-------------------------------|-0-------0-------0-------0-----------------|
D|-------------------------------|-------------------------------------------|
A|-0-------0-------0-------0-----|-------------------------------------------|
E|-------------------------------|-------------------------------------------|


[Verse 1]

   I    have  made mistakes                       I have made mistakes,     I    
e|---3-------3-------0-------0-------0-------0---|---0-------0-------0-------0--|
B|-----3-------3-------1-------1-------1-------2-|-----1-------1-------1-------1|
G|-0-------0-------2-------2-------2-------2-----|-0-------0-------2-------2----|
D|-----------------------------------------------|------------------------------|
A|-----------------------------------------------|------------------------------|
E|-----------------------------------------------|------------------------------|

   continue   to   make  them                And the promises I've
e|---0-------0-------0-------0-------0-------0---|---3-------3---------------|
B|-----1-------1-------1-------1-------1-------1-|-----3-------3-------------|
G|-----------------------------------------------|-0-------0-----------------|
D|-3-------3-------------------------------------|---------------------------|
A|-----------------3-------3-------3-------3-----|---------------------------|
E|-----------------------------------------------|---------------------------|
                     
   made                      The  promises  I've   made,  I    continue     to
e|---0-------0-------0-------0---|---0-------0-------0-------0-------0-------0--|
B|-----1-------1-------1-------1-|-----1-------1-------1-------1-------1-------1|
G|-2-------2-------2-------2-----|-0-------0-------2-------2--------------------|
D|-------------------------------|---------------------------------3-------3----|
A|-------------------------------|----------------------------------------------|
E|-------------------------------|----------------------------------------------|


  break them                       All the doubts  I've faced
e|---0-------0-------0-------0---|---3-------3-------0-------0-------0-------0-------|
B|-----1-------1-------1-------1-|-----3-------3-------1-------1-------1-------1-----|
G|-------------------------------|-0-------0-------2-------2-------2-------2---------|
D|-------------------------------|---------------------------------------------------|
A|-3-------3-------3-------3-----|---------------------------------------------------|
E|-------------------------------|---------------------------------------------------|

  All the doubts I've faced,  I  continue  to   face them
e|---0-------0-------0-------0---|---0-------0-------0-------0-------0-------0------|
B|-----1-------1-------1-------1-|-----1-------1-------1-------1-------1-------1----|
G|-0-------0-------2-------2-----|--------------------------------------------------|
D|-------------------------------|-3-------3----------------------------------------|
A|-------------------------------|-----------------3-------3-------3-------3--------|
E|-------------------------------|--------------------------------------------------|

  But nothing is a waste                          Nothing is a waste  if you
e|---3-------3-------0-------0-------0-------0---|---0-------0-------0-------0--|
B|-----3-------3-------1-------1-------1-------2-|-----1-------1-------1-------1|
G|-0-------0-------2-------2-------2-------2-----|-0-------0-------2-------2----|
D|-----------------------------------------------|------------------------------|
A|-----------------------------------------------|------------------------------|
E|-----------------------------------------------|------------------------------|

  Learn  from it                                                         And the
e|---0-------0-------0-------0-------0-------0---|---0-------0-------0-------0--|
B|-----1-------1-------1-------1-------1-------1-|-----1-------1-----1-------1--|
G|-----------------------------------------------|------------------------------|
D|-3-------3-------------------------------------|------------------------------|
A|-----------------3-------3-------3-------3-----|-3-------3-------3-------3----|
E|-----------------------------------------------|------------------------------|


[Chorus]


   sun it does not cause us, the sun it does not cause us
e|-0------------------------|----0-------------------------------------------|
B|-1------------------------|----1-------------------------------------------|
G|-2------------------------|----0-------------------------------------------|
D|-3------------------------|----2-------------------------------------------|
A|--------------------------|----3-------------------------------------------|
E|--------------------------|------------------------------------------------|

   to grow                                             It is the
e|-------------------------------|-------------------------------------------|
B|-----0-------0-------0-------0-|-----1-------1-------0-------0-------------|
G|-----0-------0-------0-------0-|-----0-------0-------0-------0-------------|
D|-------------------------------|-------------------------------------------|
A|-------------------------------|-------------------------------------------|
E|---3-------3-------3-------3---|---3-------3-------3-------3---------------|

    rain that will strengthen,    the rain that will strengthen your
e|-------------------------------|-------------------------------------------|
B|-----1-------1-------1-------1-|-----1-------1-------1-------1-------------|
G|-----2-------2-------2-------2-|-------------------------------------------|
D|---3-------3-------3-------3---|-----2-------2-------2-------2-------------|
A|-------------------------------|---3-------3-------3-------3---------------|
E|-------------------------------|-------------------------------------------|

    soul                                  It will make you whole
e|-------------------------------|-------------------------------------------|
B|-----0-------0-------0-------0-|-----1-------1-------0-------0-------------|
G|-----0-------0-------0-------0-|-----0-------0-------0-------0-------------|
D|-------------------------------|-------------------------------------------|
A|-------------------------------|-------------------------------------------|
E|---3-------3-------3-------3---|---3-------3-------3-------3---------------|

     Oh                       
e|-------------------------------|-------------------------------------------|
B|-----1-------1-------1-------1-|-----1-------1-------1-------1-------------|
G|-----2-------2-------2-------2-|-------------------------------------------|   
D|---3-------3-------3-------3---|-----2-------2-------2-------2-------------|  
A|-------------------------------|---3-------3-------3-------3---------------|
E|-------------------------------|-------------------------------------------|(x2)


[Verse 2]

                    We have lived in fear
e|-------------------------------|-------------------------------------------|
B|-----1-------1-------0-------0-|-----1-------1-------1-------1-------------|
G|---------------------0-------0-|-------------------------------------------|
D|-----2-------2-----------------|-----2-------2-------2-------2-------------|
A|---3-------3-------------------|---0-------0-------0-------0---------------|
E|-------------------3-------3---|-------------------------------------------|

    We have lived in fear,   And our fear  has    betrayed us
e|-------------------------------|--------------------------------------------------|
B|----0-------0-------1-------1--|-----1-------1-------1-------1-------1-------1----|
G|----0-------0------------------|-----2-------2------------------------------------|
D|--------------------2-------2--|---3-------3---------2-------2-------2-------2----|
A|-------------------0-------0---|-------------------3-------3-------3-------3------|
E|---3-------3-------------------|--------------------------------------------------|

     But we   will    overcome                           We  will   overcome  the apa-
e|-----------------------------------------------|----------------------------------|
B|-----0-------0-------1-------1-------1-------1-|-----0-------0-------1-------1----|
G|-----0-------0---------------------------------|-----0-------0--------------------|
D|---------------------2-------2-------2-------2-|---------------------2-------2----|
A|-------------------0-------0-------0-------0---|-------------------0-------0------|
E|---3-------3-----------------------------------|---3-------3----------------------|

  -thy that  has   made   us                       Cause we are not alone
e|-----------------------------------------------|------------------------------------------------------|
B|-----1-------1-------1-------1-------1-------1-|-----0-------0-------1-------1-------1-------1--------|
G|-----2-------2---------------------------------|-----0-------0----------------------------------------|
D|---3-------3---------2-------2-------2-------2-|---------------------2-------2-------2-------2--------|
A|-------------------3-------3-------3-------3---|-------------------0-------0-------0-------0----------|
E|-----------------------------------------------|---3-------3------------------------------------------|

   We  are  not  alone   in  the   dark  with  our  demons
e|-------------------------------|--------------------------------------------------|
B|----0-------0-------1-------1--|-----1-------1-------1-------1-------1-------1----|
G|----0-------0------------------|-----2-------2------------------------------------|
D|--------------------2-------2--|---3-------3---------2-------2-------2-------2----|
A|-------------------0-------0---|-------------------3-------3-------3-------3------|
E|---3-------3-------------------|--------------------------------------------------|

    And we have made mistakes                       We have  made mistakes, but we've
e|-----------------------------------------------|----------------------------------|
B|-----0-------0-------1-------1-------1-------1-|-----0-------0-------1-------1----|
G|-----0-------0---------------------------------|-----0-------0--------------------|
D|---------------------2-------2-------2-------2-|---------------------2-------2----|
A|-------------------0-------0-------0-------0---|-------------------0-------0------|
E|---3-------3-----------------------------------|---3-------3----------------------|

   learned from 'em                                                       And the
e|-----------------------------------------------|-------------------------------|
B|-----1-------1-------1-------1-------1-------1-|-----1-------1-------1-------1-|
G|-----2-------2---------------------------------|-------------------------------|
D|---3-------3---------2-------2-------2-------2-|-----2-------2-------2-------2-|
A|-------------------3-------3-------3-------3---|---3------3--------3-------3---|
E|-----------------------------------------------|-------------------------------|


[Chorus]

   sun it  does  not  cause  us,    the sun it does not cause us, to
e|--------------------------------|------------------------------------------------|
B|-----1-------1-------1-------1--|-----1-------1-------1-------1------------------|
G|-----2-------2-------2-------2--|------------------------------------------------|
D|---3-------3-------3-------3----|-----2-------2-------2-------2------------------|
A|--------------------------------|---3-------3-------3-------3--------------------|
E|--------------------------------|------------------------------------------------|

   grow                                             It is the
e|-------------------------------|-------------------------------------------|
B|-----0-------0-------0-------0-|-----1-------1-------0-------0-------------|
G|-----0-------0-------0-------0-|-----0-------0-------0-------0-------------|
D|-------------------------------|-------------------------------------------|
A|-------------------------------|-------------------------------------------|
E|---3-------3-------3-------3---|---3-------3-------3-------3---------------|

    rain that will strengthen,    the rain that will strengthen your
e|-------------------------------|-------------------------------------------|
B|-----1-------1-------1-------1-|-----1-------1-------1-------1-------------|
G|-----2-------2-------2-------2-|-------------------------------------------|
D|---3-------3-------3-------3---|-----2-------2-------2-------2-------------|
A|-------------------------------|---3-------3-------3-------3---------------|
E|-------------------------------|-------------------------------------------|

    soul                                  It will make you whole
e|-------------------------------|-------------------------------------------|
B|-----0-------0-------0-------0-|-----1-------1-------0-------0-------------|
G|-----0-------0-------0-------0-|-----0-------0-------0-------0-------------|
D|-------------------------------|-------------------------------------------|
A|-------------------------------|-------------------------------------------|
E|---3-------3-------3-------3---|---3-------3-------3-------3---------------|

     Oh                       
e|-------------------------------|-------------------------------------------|
B|-----1-------1-------1-------1-|-----1-------1-------1-------1-------------|
G|-----2-------2-------2-------2-|-------------------------------------------|   
D|---3-------3-------3-------3---|-----2-------2-------2-------2-------------|  
A|-------------------------------|---3-------3-------3-------3---------------|
E|-------------------------------|-------------------------------------------|(x2)


[Outro]

                And  oh    my     heart,     how   can     I   
e|---0-------0-------0-------0---|---0-------0-------0-------0---------------|
B|-----1-------1-------1-------1-|-----1-------1-------1-------1-------------|
G|-------------------------------|-------------------------------------------|
D|-3-------3-------3-------3-----|-------------------------------------------|
A|-------------------------------|-3-------3-------3-------3-----------------|
E|-------------------------------|-------------------------------------------|

    face  you     now?
e|---0-------0-------0-------0---|---3-------3-------------------------------|
B|-----1-------1-------1-------1-|-----3-------3-------3/5--3--1-------------|
G|-------------------------------|-0-------0-------0--------------2--0-------|
D|-------------------------------|-------------------------------------------|
A|-0-------0-------0-------0-----|-------------------------------------------|
E|-------------------------------|-------------------------------------------|

               When  we    both   know      how     badly     
e|---0-------0-------0-------0---|---0-------0-------0-------0---------------|
B|-----1-------1-------1-------1-|-----1-------1-------1-------1-------------|
G|-------------------------0-----|-------------------------------------------|
D|-3-------3-------3-------------|-------------------------0-----------------|
A|-------------------------------|-3-------3-------3-------------------------|
E|-------------------------------|-------------------------------------------|

    I,       how    badly            I       have  let     you 
e|---0-------0-------0-------0---|---3-------3-------3-------3---------------|
B|-----1-------1-------1-------1-|-----3-------3-------3-------3-------------|
G|-------------------------------|-0-------0-------0-------0-----------------|
D|-------------------------------|-------------------------------------------|
A|-0-------0-------0-------0-----|-------------------------------------------|
E|-------------------------------|-------------------------------------------|

   down        And  I     am      afraid
e|---0-------0-------0-------0---|---0-------0-------0-------0---------------|
B|-----1-------1-------1-------1-|-----1-------1-------1-------1-------------|
G|-------------------------------|-------------------------------------------|
D|-3-------3-------3-------3-----|-------------------------------------------|
A|-------------------------------|-3-------3-------3-------3-----------------|
E|-------------------------------|-------------------------------------------|

                  I   am      afraid
e|---0-------0-------0-------0---|---3-------3-------------------------------|
B|-----1-------1-------1-------1-|-----3-------3-------3/5--3--1-------------|
G|-------------------------------|-0-------0-------0--------------2--0-------|
D|-------------------------------|-------------------------------------------|
A|-0-------0-------0-------0-----|-------------------------------------------|
E|-------------------------------|-------------------------------------------|

            Of    all that I've built
e|---0-------0-------0-------0---|---0-------0-------0-------0---------------|
B|-----1-------1-------1-------1-|-----1-------1-------1-------1-------------|
G|-------------------------------|-------------------------------------------|
D|-3-------3-------3-------3-----|-------------------------------------------|
A|-------------------------------|-3-------3-------3-------3-----------------|
E|-------------------------------|-------------------------------------------|

                 Fading away
e|---0-------0-------0-------0---|---3-------3-------3-------3---------------|
B|-----1-------1-------1-------1-|-----3-------3-------3-------3-------------|
G|-------------------------------|-0-------0-------0-------0-----------------|
D|-------------------------------|-------------------------------------------|
A|-0-------0-------0-------0-----|-------------------------------------------|
E|-------------------------------|-------------------------------------------|


************************************

| /  Slide up

************************************
Suggest correction
Give kudos to tab author, rate the tab!
1 2 3 4 5
comments
print report bad tab
guest
You may want to rate the tab now too:
select rating
Wanna post a correction for this tab? Suggest correction