Oops, an error
Loading. Please wait.

Like The Dawn chords

version 3
version 3

Whole song

1,861 views 66 this week
no commentswrite comment
1 2 3 4 5
x 11
add to favorites
×
Save as Personal and add changes to this tab that will be seen only by you. Learn more ›
×
You can save this tab as Personal to edit and correct it or add notes. All changes will be seen only by you. Learn more »
launch autoscroll
font size
0
reset
transpose
0
reset
simplify chords
display chords
guitar tuner
edit
Autoscroll
slow
fast
+/-
esc
set tempo
stop
Strumming
There is no strumming pattern for this song yet. and get +5 IQ
Oh Hellos - Like The Dawn
Capo 8th 

Intro
Am                               |C                               |
---------------------------------|--------------------------------|
-------1-------1-------1-------1-|------1-------1-------1-------1-|
-----------2---------------2-----|----------0---------------0-----|
-----2---------------2-----------|----2---------------2-----------|
-0-----------0---0-----------0---|3-----------3---3-----------3---|
---------------------------------|--------------------------------|

 G               Gsus            |G                               ||
---------------------------------|--------------------------------|
p0-----0-------0-------1-------1p|0-----0-------0-------0-------0-|
-----------0---------------0-----|----------0---------------0-----|
-----0---------------0-----------|----0---------------0-----------|
---------------------------------|--------------------------------|
-3-----------3---3-----------3---|3-----------3---3-----------3---|

Verse 1
         Am             C                   G
 I was sleeping in the garden when I saw you first
              Am        C                     G
 He'd put me deep, deep under so that he could work
              Am                  C               G
 And like the dawn you broke the dark and my whole earth shook
         Am             C                    Em    D
 I was sleeping in the garden when I saw you

     Am       G/B   C
 At last, at last
  Em          D          C           G            Am
 Bones of my bones and flesh of my flesh, at last


Interlude    Am    |      |Em   |D     ||x2

Verse 2
               Am                 C            G
 You were the brightest shade of sun I had ever seen
               Am               C                 G
 Your skin was gilded with the gold of the richest kings
              Am                 C             G
 And like the dawn you woke the world inside of me
               Am                 C                Em     D
 You were the brightest shade of sun when I saw you


Interlude    Am    |      |Em    |D     ||x2
             Am    |C     |Em    |D     ||x4

   Am    G/B C
At last
              Em            D       C                         G
And you will surely be the death of me but how could I have known?


Outro     Am    |C    |G     |D     ||x7    Am7   |Csus2 |G

            
            
Suggest correction
Creating personal tab
Creating personal tab
You can edit any tab online and save it as your Personal.

You can edit, replace or remove any tab part or add personal notes – all changes will be seen only by you.

Personal tabs can be accessed anytime from any device, even offline.
Learn more »
comments
print report bad tab
guest
You may want to rate the tab now too:
select rating
Wanna post a correction for this tab? Suggest correction