Oops, an error
Loading. Please wait.

For The Love Of Money bass

version 1
version 1

Whole song

25,089 views 21 this week
1 commentread comment
1 2 3 4 5
x 8
add to favorites
×
Save as Personal and add changes to this tab that will be seen only by you. Learn more ›
×
You can save this tab as Personal to edit and correct it or add notes. All changes will be seen only by you. Learn more »
launch autoscroll
font size
0
reset
guitar tuner
edit
Autoscroll
slow
fast
+/-
esc
set tempo
stop
Author
Difficulty
intermediate
A classic riff done right! Listen to the song for the various forms of syncopation within. Enjoy!

 [Intro]
G|-----7-7--5-5--|-5-5-5-5p4h5/7-|-----7-7--5-5--|-5-5-5-----------|
D|---------------|---------------|---------------|-----------------|
A|-5-5-----------|---------------|-5-5-----------|------------3-4--|
E|---------------|---------------|---------------|------0-5-7------|
 ^^^^^^Played 8 Times ^^^^^^^^^

 [Verse]  “Some people, got to have it ...”
G|-----------|--5-5-5-5p4h5/7---|
D|-----------|------------------|
A|----5-4-3--|------------------|
E|-----------|------------------|
    ^^^^^^Played 6 Times^^^^^^

 [Break]
G|----------|
D|----------|
A|---3p2h3--|
E|-5--------|
    ^16x^   

 [Verse]
G|-----------|--5-5-5-5p4h5/7---|
D|-----------|------------------|
A|----5-4-3--|------------------|
E|-----------|------------------|
    ^^^^^^Played 6 Times^^^^^^

  [Chorus]
                G|--------------------|
                D|--------------------|
                A|------------4-4-----|
                E|---3-3-3-3------5---|
      “For that lean,    -   mean ...”

 [Bridge]
G|------------------------|------------------------------------|
D|-5-------------3h5-3h5--|------------------------------------|
A|---2--3--5-5-5----------|------------------------------------|
E|------------------------|-5-5-5-5-5-5-5-5-5-5-5-5-5----------|
 ^^^^Played 6 Times^^^^^

************************************

| h  Hammer-on
| p  Pull-off
| /  Slide up

************************************

            
            
Suggest correction
Creating personal tab
Creating personal tab
You can edit any tab online and save it as your Personal.

You can edit, replace or remove any tab part or add personal notes – all changes will be seen only by you.

Personal tabs can be accessed anytime from any device, even offline.
Learn more »
comments
print report bad tab
1 comment total.
+1 reply
rsimmons999 10 Apr 22, 2015 03:29 PM

I have a premium account on my phone that i payed a good amount for, but it does not translate at all to the web site version. some features I can do on my phone but not the site. It is quite frustrating at times.

guest
You may want to rate the tab now too:
select rating
Wanna post a correction for this tab? Suggest correction