Oops, an error
Loading. Please wait.

Saloon tab

670 views 3 this week
1 commentread comment
1 2 3 4 5
x 4
add to favorites
×
Save as Personal and add changes to this tab that will be seen only by you. Learn more ›
×
You can save this tab as Personal to edit and correct it or add notes. All changes will be seen only by you. Learn more »
launch autoscroll
font size
0
reset
how to read this tab
guitar tuner
edit
Autoscroll
slow
fast
+/-
esc
set tempo
stop
The Ongoing Concept - Saloon
Creator of tab- bramante98
Email- bramante98@gmail.com (DO NOT SPAM)
Tuning- Drop C (CGCFAD)

From what i know this is the first tab for this band in general, i watched a cover and
wanted to tab it out, im still learning the song myself so this is a rough version. As i improve
ill edit the tab and make it better, Please give feedback


INTRO
D|--0-0-0-0-0-0-0-0-0-0-0-0-0-0-0-0-0-0-0-0-0-0-0-0-0-0-0-0-0-0-0-0-0-0-0-0-0-0-0-0-0--0-00-0-00-0-00-0-00-|
A|--6-6-6-6-6-6-6-6-6-6-6-6-6-6-6-6-6-6-6-6-6-6-6-6-6-6-6-6-6-6-6-6-6-6-6-6-6-6-6-6-6--6-66-6-66-6-66-6-66-|
F|--0-0-0-0-0-0-0-0-0-0-0-0-0-0-0-0-0-0-0-0-0-0-0-0-0-0-0-0-0-0-0-0-0-0-0-0-0-0-0-0-0--0-00-0-00-0-00-0-00-|
C|--0-0-0-0-0-0-0-0-0-0-0-0-0-0-0-0-0-0-0-0-0-0-0-0-0-0-0-0-0-0-0-0-0-0-0-0-0-0-0-0-0--0-00-0-00-0-00-0-00-|
G|--0-0-0-0-0-0-0-0-0-0-0-0-0-0-0-0-0-0-0-0-0-0-0-0-0-0-0-0-0-0-0-0-0-0-0-0-0-0-0-0-0--0-00-0-00-0-00-0-00-|
C|--0-0-0-0-0-0-0-0-0-0-0-0-0-0-0-0-0-0-0-0-0-0-0-0-0-0-0-0-0-0-0-0-0-0-0-0-0-0-0-0-0--0-00-0-00-0-00-0-00-|
     Note: This is strummed                                                              *    *    *    *

D|-----------------------------------------------------------0~---|
A|-----------------------------------------------------------0~---|
F|-----------------------------------------------------------0~---|      |BREAK|
C|-----------------------------------------------------------0~---|
G|---13-12---------13-12---------13-12---------13-12---------0~---|
C|-0-------00-00--0------00-00-0-------00-00-0-------00-00---0~---|
           *  *          *  *          *  *          *  *

VERSE
D|--000--0--0--000--0~---000--0--0-00-00---0~---000--0--0--000--------------000--0--0--00-00--0~--0---0---12h|
A|--000--0--0--000--0~---000--0--0-00-00---0~---000--0--0--000--------------000--0--0--00-00--0~--0---0---12h|
F|--000--0--0--000--0~---000--0--0-00-00---0~---000--0--0--000--------------000--0--0--00-00--0~--0---0---12h|
C|--000--0--0--000--0~---000--0--0-00-00---0~---000--0--0--000--------------000--0--0--00-00--0~----0---0-0~-|
G|--000--0--0--000--0~---000--0--0-00-00---0~---000--0--0--000--------------000--0--0--00-00--0~----0---0-0~-|
C|--000--0--0--000--0~---000--0--0-00-00---0~---000--0--0--000-0h3-0h5-0h7--000--0--0--00-00--0~----0---0-0~-|
                                                               *   *   *

CHORUS
D|------------------------------------------------------------------------------|
A|--3-333~--333--0-00-6~-666----------------------------------------------------|
F|--2-222~--222--0-00-0~-000----------------------------------------------------|
C|--0-000~--000--3-33-3~-333---8-888~--888-5555-6666----------------------------|
G|--0-000~--000--3-33-3~-333---8-888~--888-5555-6666----------------------------|
C|--0-000~--000--3-33-3~-333---8-888~--888-5555-6666----------------------------|
                    *

D|--------------------------------------------------|
A|--3-333-333---------------------------------------|
F|--2-222-222--10\9\8-------------------------------|
C|--0-000-000----------8-888-8-888-5555-11-11-11-11-|
G|--0-000-000---8\7\6--8-888-8-888-5555-11-11-11-11-|
C|--0-000-000----------8-888-8-888-5555-11-11-11-11-|


BRIDGE                  
D|-------------------------------------------------------------------------------------------------------|
A|-------------------------------------------------------------------------------------------------------|
F|-------------------------------------------------------------------------------------------------------|
C|-----5p3p0--------------------5p3p0-----------------------5p3p0---------------------5p3p0--------------|
G|-0-0------5p3p0-----------0-0------5p3p0---------------0-0-----5p3p0-----------0--0------5p3p0---------|
C|-0-0-----------5p3p0-0-0~-0-0-----------5p3p0h3h5b-0-0-0-0----------5p3p0-0-0--0--0-----------5p3p0/16b|
                       *                             *                      *

VERSE
D|--00-00-00000~-00-00-000~--00-00-000~--0---------10h--00-00-00000~-00-00-000~--00-00-000~---------------|
A|--00-00-00000~-00-00-000~--00-00-000~--0~--------10h--00-00-00000~-00-00-000~--00-00-000~---------------|
F|--00-00-00000~-00-00-000~--00-00-000~--0~--------10h--00-00-00000~-00-00-000~--00-00-000~---------------|
C|--00-00-00000~-00-00-000~--00-00-000~--0~---0/10------00-00-00000~-00-00-000~--00-00-000~---------------|
G|--00-00-00000~-00-00-000~--00-00-000~--0~---0/10------00-00-00000~-00-00-000~--00-00-000~---------------|
C|--00-00-00000~-00-00-000~--00-00-000~--0~---0/10------00-00-00000~-00-00-000~--00-00-000~---------------|


D|-00-00-00-0--------------------------------------------------------------------------|
A|-00-00-00-0--------------------------------------------------------------------------|
F|-00-00-00-0---7-7-7-7-7-7--7\6\5/6--7-7-7-7-7-7--7/6/5\6--7-7-7-7-7-7--7\6\5/6-------|
C|-00-00-00-0---7-7-7-7-7-7--7\6\5/6--7-7-7-7-7-7--7/6/5\6--7-7-7-7-7-7--7\6\5/6-------|
G|-00-00-00-0---5-5-5-5-5-5--5\4\3/4--5-5-5-5-5-5--5/4/3\4--5-5-5-5-5-5--5\4\3/4-------|
C|-00-00-00-0--------------------------------------------------------------------------|


D|--------------------------------|
A|--------------------------------|
F|--------------------------------|
C|--------------------------------|
G|--0-3-5-6-8-10-11---------------|
C|--0-3-5-6-8-10-11-12b\----------|


CHORUS
D|------------------------------------------------------------------------------|
A|--3-333~--333--0-00-6~-666----------------------------------------------------|
F|--2-222~--222--0-00-0~-000----------------------------------------------------|
C|--0-000~--000--3-33-3~-333---8-888~--888-5555-6666----------------------------|
G|--0-000~--000--3-33-3~-333---8-888~--888-5555-6666----------------------------|
C|--0-000~--000--3-33-3~-333---8-888~--888-5555-6666----------------------------|
                    *

D|---------------------------------------------------|
A|--3-333-333----------------------------------------|
F|--2-222-222--10\9\8--------------------------------|
C|--0-000-000----------8-888-8-888-5555-11-11-11-11--|
G|--0-000-000---8\7\6--8-888-8-888-5555-11-11-11-11--0|
C|--0-000-000----------8-888-8-888-5555-11-11-11-11--0|


BREAKDOWN
D|-0-0-------------------------------------------------0-0-------------------------------------------------|
A|-0-0-------------------------------------------------0-0-------------------------------------------------|
F|-0-0-------------------------------------------------0-0-------------------------------------------------|
C|-0-0-------------------------------------------------0-0-------------------------------------------------|
G|-0-0--0h12---0h12---0h12---0h12---0h12---12-11-10-0--0-0--0h12---0h12---0h12---0h12---0h12--0-10-12-17---|
C|-0-0--0h12---0h12---0h12---0h12---0h12---12-11-10-0--0-0--0h12---0h12---0h12---0h12---0h12--0-10-12-17---|

     ^Note: kinda is like a fast chug-ga chug-ga chug-ga chug-ga chug-ga^

D|-0-0-------------------------------------------------0-0-------------------------------------------------|
A|-0-0-------------------------------------------------0-0-------------------------------------------------|
F|-0-0-------------------------------------------------0-0-------------------------------------------------|
C|-0-0-------------------------------------------------0-0-------------------------------------------------|
G|-0-0--0h12---0h12---0h12---0h12---0h12---12-11-10-0--0-0--0h12---0h12---0h12---0h12---0h12--0-10-12-17---|
C|-0-0--0h12---0h12---0h12---0h12---0h12---12-11-10-0--0-0--0h12---0h12---0h12---0h12---0h12--0-10-12-17---|


D|------------------------------------------------------------------------------------------------------|
A|---------13-12-------13-12-10-10b------13-12-------13-12-10-7b----13-12------13-12-10-10b-----13-12------|
F|---------13-12-------13-12-10-10b------13-12-------13-12-10-------13-12------13-12-10-10b-----13-12------|
C|------------------------------------------------------------------------------------------------------|
G|-0000000--------0000--------------0---------0000-------------0--------0000--------------0-------------|
C|-0000000--------0000--------------0---------0000-------------0--------0000--------------0-------------|
   ******         ***                         ***                       *** 

D|------------------------------12h~~---0000-----------------------------------------------------------------|
A|-------13-12-10-7-7-----------12h~~---6666-----------------------------------------------------------------|
F|-------13-12-10-7-7-----------12h~~---0000-----------------------------------------------------------------|
C|-------------------------------0~-----0000----END----------------------------------------------------------|
G|--0000----------~~-------------0~-----0000-----------------------------------------------------------------|
C|--0000----------~~-------------0~-----0000-----------------------------------------------------------------|
    ***

THANKS i worked really hard on interpreting this from ear and watching a video so please
leave comments on corrections i wanna get this as close as possible
************************************

| x   Dead note
| g   Grace note
| (n) Ghost note
| h   Hammer-on
| p   Pull-off
| r   Release
| >   Accented note
| t   Tapping
| b   Bend
| br  Bend release
| pb  Pre-bend
| pbr Pre-bend release
| /   Slide up
| \   Slide down
| ~   Vibrato
| s   Squealy
| P   Pop
| *   Palm mute
| TR  Trill
| N   Tremolo
| h   Harmonic

************************************

            
            
Suggest correction
Creating personal tab
Creating personal tab
You can edit any tab online and save it as your Personal.

You can edit, replace or remove any tab part or add personal notes – all changes will be seen only by you.

Personal tabs can be accessed anytime from any device, even offline.
Learn more »
comments
print report bad tab
1 comment total.
+1 reply
Whiplash2067 20 Apr 19, 2016 06:43 AM

All looks good to me bud!

guest
You may want to rate the tab now too:
select rating
Wanna post a correction for this tab? Suggest correction