Oops, an error
Loading. Please wait.

Kyouran Hey Kids bass

version 1
version 1

Whole song

  • Written in Sibelius, this version is perfected wit... Show more
6,487 views 87 this week
no commentswrite comment
1 2 3 4 5
x 4
add to favorites
×
Save as Personal and add changes to this tab that will be seen only by you. Learn more ›
×
You can save this tab as Personal to edit and correct it or add notes. All changes will be seen only by you. Learn more »
launch autoscroll
font size
0
reset
guitar tuner
edit
Autoscroll
slow
fast
+/-
esc
set tempo
stop
Author
G|-------------------------3-------------------------------3-------------------3-4-|
D|---------------------3-5---5-3---6-6---6-5-----------3-5---5-3---6-6---6-5-6-----|
A|-3---------------3-6-----------6-----6-----6-5---3-6-----------6-----6-----------|
E|-----------------------------------------------6---------------------------------|
   1 + 2 + 3 + 4 + 1 + 2 + 3 + 4 + 1 + 2 + 3 + 4 + 1 + 2 + 3 + 4 + 1 + 2 + 3 + 4 +

G|-5-5---5-8-5-8-10-11-11-11-11-10-8--------------3-----------------------|
D|-----8-----------------------------10-8-----3-5---5-3---6-6---6-5-------|
A|----------------------------------------3-6-----------6-----6-----6-5---|
E|----------------------------------------------------------------------6-|
   1 + 2 + 3 + 4 +  1  +  2  +  3  + 4  + 1 + 2 + 3 + 4 + 1 + 2 + 3 + 4 +

Verse 0:23
G|-------5--3------------5--3------------5--3----------------------|
D|------------56-5------------56-5------------56-5-----------------| 56 = 5h6
A|-3--3------------3--3------------3--3------------------------1-2-|
E|-------------------------------------------------4--4--3--3-3----|
   1 + 2 + 3 + 4 + 1 + 2 + 3 + 4 + 1 + 2 + 3 + 4 + 1 + 2 + 3 + 4 +

G|-------5--3------------5--3------------5--3----------------------|
D|------------56-5------------56-5------------56-5-----------------| 56 = 5h6
A|-3--3------------3--3------------3--3----------------------------|
E|-------------------------------------------------4-4-4-4-3-3-----|
   1 + 2 + 3 + 4 + 1 + 2 + 3 + 4 + 1 + 2 + 3 + 4 + 1 + 2 + 3 + 4 +

G|-----------------------------------------------------------------|
D|-------3-5-3---------------------------3-5-3---------------------|
A|-3-3-6-------6-------3-------1-2-3-3-6-------6-------3-------5-6-|
E|---------------6-4-4---4-3-3-------------------6-4-4---4-6-6-----|
   1 + 2 + 3 + 4 + 1 + 2 + 3 + 4 + 1 + 2 + 3 + 4 + 1 + 2 + 3 + 4 +

Pre Chorus 0:42
G|-----------------------------------------------------------------|
D|-----------------------------------------------------------------|
A|-3--3--3-------------------------3--3--3-5--55-5-66666-----------|
E|---------3--33-3-4--4--4-6--66-6---------------------------------|
   1 + 2 + 3 + 4 + 1 + 2 + 3 + 4 + 1 + 2 + 3 + 4 + 1 + 2 + 3 + 4 +

Chorus 0:50
G|-----------------------------------------------------------------|
D|-------------------------------3---------------------------------|
A|---------------------------5-6---6-6-6-6-5-5-5-5-3-3-3-3---------|
E|-4-4-4-4-4-4-4-4-6-6-6-6-6-------------------------------6-6-6-6-|
   1 + 2 + 3 + 4 + 1 + 2 + 3 + 4 + 1 + 2 + 3 + 4 + 1 + 2 + 3 + 4 +

G|-----------------------------------------------------------------|
D|-----------------------------------------------------------------|
A|---------------------------------2-2-2-2---------3-3-3-3-6-6-6-6-|
E|-4-4-4-4-4-4-4-4-6-6-6-6-6-6-6-6---------3-3-3-3-----------------|
   1 + 2 + 3 + 4 + 1 + 2 + 3 + 4 + 1 + 2 + 3 + 4 + 1 + 2 + 3 + 4 +

1:03
G|-----------------------------------------------------------------|
D|-------------------------------3----5--8-------8-------5-------3-|
A|---------------------------5-6---6-------5--8----3--6-------5----|
E|-4-4-4-4-4-4-4-4-6-6-6-6-6-------------------------------6-------|
   1 + 2 + 3 + 4 + 1 + 2 + 3 + 4 + 1 + 2 + 3 + 4 + 1 + 2 + 3 + 4 +

G|-----------------------------------------------------------------|
D|-----------------------------------------------------------------|
A|-------------------------1-1-2-2-3-------------------------------|
E|-4-4-4-4-4-4-4-4-3-3-3-3-----------------------------------4-4-6-|
   1 + 2 + 3 + 4 + 1 + 2 + 3 + 4 + 1 + 2 + 3 + 4 + 1 + 2 + 3 + 4 +

Interlude 1:17
G|---------3-------------------------------3-------------------3-4-|
D|-----3-5---5-3---6-6---6-5-----------3-5---5-3---6-6---6-5-6-----|
A|-3-6-----------6-----6-----6-5---3-6-----------6-----6-----------|
E|-------------------------------6---------------------------------|
   1 + 2 + 3 + 4 + 1 + 2 + 3 + 4 + 1 + 2 + 3 + 4 + 1 + 2 + 3 + 4 +

G|-5-5---5-8-5-8-10-11-11-11-11-10-8--------------3-----------------------|
D|-----8-----------------------------10-8-----3-5---5-3---6-6---6-5-------|
A|----------------------------------------3-6-----------6-----6-----------|
E|------------------------------------------------------------------------|
   1 + 2 + 3 + 4 +  1  +  2  +  3  + 4  + 1 + 2 + 3 + 4 + 1 + 2 + 3 + 4 +

Verse 1:30
G|-----------7-7-------575---7-7-------------7-7-5-4---------------|
D|-----5-------------------------------5---------------------------|
A|-3--3--3-------3-3--3------------3--3--3---------------------1-2-|
E|-------------------------------------------------------4-3-------|
   1 + 2 + 3 + 4 + 1 + 2 + 3 + 4 + 1 + 2 + 3 + 4 + 1 + 2 + 3 + 4 +

G|-------5---7-7---------5---7-7-----------------------------------|
D|-----5---------------5-------------------------------------------|
A|-3--3----------333--3------------3-----3-----3-1-3---------------|
E|-----------------------------------------------------------------|
   1 + 2 + 3 + 4 + 1 + 2 + 3 + 4 + 1 + 2 + 3 + 4 + 1 + 2 + 3 + 4 +

Chorus 1:43
G|-----------------------------------------------------------------|
D|-------------------------------3---------------------------------|
A|---------------------------5-6---6-6-6-6-5-5-5-5-3-3-3-3---------|
E|-4-4-4-4-4-4-4-4-6-6-6-6-6-------------------------------6-6-6-6-|
   1 + 2 + 3 + 4 + 1 + 2 + 3 + 4 + 1 + 2 + 3 + 4 + 1 + 2 + 3 + 4 +

G|-----------------------------------------------------------------|
D|-----------------------------------------------------------------|
A|---------------------------------2-2-2-2---------3-3-3-3-6-6-6-6-|
E|-4-4-4-4-4-4-4-4-6-6-6-6-6-6-6-6---------3-3-3-3-----------------|
   1 + 2 + 3 + 4 + 1 + 2 + 3 + 4 + 1 + 2 + 3 + 4 + 1 + 2 + 3 + 4 +

G|-----------------------------------------------------------------|
D|-------------------------------3----5--8-------8-------5-------3-|
A|----------------------------5----6-------5--8----3--6-------5----|
E|-4-4-4-4-4---4---6-6-6-6-6-------------------------------6-------|
   1 + 2 + 3 + 4 + 1 + 2 + 3 + 4 + 1 + 2 + 3 + 4 + 1 + 2 + 3 + 4 +

G|-----------------------------------------------------------------|
D|-----------------------------------------------------------------|
A|-------------------------1---2---3-------------------------------|
E|-4-4-4-4-4---4---3-3-3-3-----------------------------------------|
   1 + 2 + 3 + 4 + 1 + 2 + 3 + 4 + 1 + 2 + 3 + 4 + 1 + 2 + 3 + 4 +

Rest

Solo 2:14 played with tapping
G|-----------------------------------------------(x3)|---------------------------------------------|
D|o-------------------------------------------------o|----------------------------12-------13------|
A|o-15-------13-------11-------10-------11----------o|-15-------13-------15------------------------|
E|-----11-13----11-13----11-13----11-13----11-13-11--|----11-13----11-13----11-13----11-13---------|
    1  e  +  a  2  e  +  a  3  e  +  a  4  e  +  a     1  e  +  a  2  e  +  a  3  e  +  a  4 e + a 

2:21
G|-----------------------------------------------------------------|
D|-------------------------------3---------------------------------|
A|---------------------------5-6---6-6-6-6-5-5-5-5-3-3-3-3---------|
E|-4-4-4-4-4-4-4-4-6-6-6-6-6-------------------------------6-6-6-6-|
   1 + 2 + 3 + 4 + 1 + 2 + 3 + 4 + 1 + 2 + 3 + 4 + 1 + 2 + 3 + 4 +

G|-----------------------------------------------------------------|
D|-----------------------------------------------------------------|
A|-------------------------------------------------2-2-2-2-2-2-2-2-|
E|-4-4-4-4-4-4-4-4-4-4-4-4-4-4-4-4-6-6-6-6-6-6-6-6-----------------|
   1 + 2 + 3 + 4 + 1 + 2 + 3 + 4 + 1 + 2 + 3 + 4 + 1 + 2 + 3 + 4 +

Bridge
G|-----------------------------------------------------------------|
D|-----------------------------------------------------------------|
A|-3-3-3-3-3-3-3-3-------------------------------------------------|
E|-----------------6-6-6-6-6-6-6-6-4-4-4-4-4-4-4-4-3-3-3-3-3-3-3-3-|
   1 + 2 + 3 + 4 + 1 + 2 + 3 + 4 + 1 + 2 + 3 + 4 + 1 + 2 + 3 + 4 +

G|-----------------------------------------------------------------|
D|-----------------------------------------------------------------|
A|-3-3-3-3-3-3-3-3-------------------------------------------------|
E|-----------------6-6-6-6-6-6-6-6---------------------------------|
   1 + 2 + 3 + 4 + 1 + 2 + 3 + 4 + 1 + 2 + 3 + 4 + 1 + 2 + 3 + 4 +

Interlude 2:48
G|-------------------------------------------------------------------|
D|o-------3-5-3---------------------------3-5-3---------------------o|
A|o-3-3-6-------6-------3-------1-2-3-3-6-------6-------3-------1-2-o|
E|----------------6-4-4---4-3-3-------------------6-4-4---4-3-3------|
    1 + 2 + 3 + 4 + 1 + 2 + 3 + 4 + 1 + 2 + 3 + 4 + 1 + 2 + 3 + 4 +

3:01
G|-----------3-------------------------------3---------------------|
D|-------3-5---5-3-6-6---6-5-------------3-5---5-3-6-6---6-5-------|
A|-3-3-6---------------6-----6-5---3-3-6---------------6-----6-5---|
E|-------------------------------6-------------------------------6-|
   1 + 2 + 3 + 4 + 1 + 2 + 3 + 4 + 1 + 2 + 3 + 4 + 1 + 2 + 3 + 4 +

G|-----------3-----------------------------------------------------|
D|-------3-5---5-3-6-6---6-5---------------------------------------|
A|-3-3-6---------------6-----6-5---3-----3-----3-3-----------------|
E|-------------------------------6---------------------------------|
   1 + 2 + 3 + 4 + 1 + 2 + 3 + 4 + 1 + 2 + 3 + 4 + 1 + 2 + 3 + 4 +

Chorus 3:15
G|-----------------------------------------------------------------|
D|-------------------------------3---------------------------------|
A|---------------------------5-6---6-6-6-6-5-5-5-5-3-3-3-3---------|
E|-4-4-4-4-4-4-4-4-6-6-6-6-6-------------------------------6-6-6-6-|
   1 + 2 + 3 + 4 + 1 + 2 + 3 + 4 + 1 + 2 + 3 + 4 + 1 + 2 + 3 + 4 +

G|-----------------------------------------------------------------|
D|-----------------------------------------------------------------|
A|---------------------------------2-2-2-2---------3-3-3-3-6-6-6-6-|
E|-4-4-4-4-4-4-4-4-6-6-6-6-6-6-6-6---------3-3-3-3-----------------|
   1 + 2 + 3 + 4 + 1 + 2 + 3 + 4 + 1 + 2 + 3 + 4 + 1 + 2 + 3 + 4 +

G|-----------------------------------------------------------------|
D|-------------------------------3----5--8-------8-------5-------3-|
A|---------------------------5-6---6-------5--8----3--6-------5----|
E|-4-4-4-4-4-4-4-4-6-6-6-6-6-------------------------------6-------|
   1 + 2 + 3 + 4 + 1 + 2 + 3 + 4 + 1 + 2 + 3 + 4 + 1 + 2 + 3 + 4 +

G|---------------------------------|
D|---------------------------------|
A|---------------------------------|
E|-4-4-4-4-4-4-4-4-3-3-3-3-6-6-6-6-|
   1 + 2 + 3 + 4 + 1 + 2 + 3 + 4 + 

3:38
G|-----------------------------------------------------------------|
D|-------------------------------3---------------------------------|
A|---------------------------5-6---6-6-6-6-5-5-5-5-3-3-3-3---------|
E|-4-4-4-4-4-4-4-4-6-6-6-6-6-------------------------------6-6-6-6-|
   1 + 2 + 3 + 4 + 1 + 2 + 3 + 4 + 1 + 2 + 3 + 4 + 1 + 2 + 3 + 4 +

G|-----------------------------------------------------------------|
D|-----------------------------------------------------------------|
A|-------------------------1-1-2-2-3-------------------------------|
E|-4-4-4-4-4-4-4-4-3-3-3-3-----------------------------------4-4-6-|
   1 + 2 + 3 + 4 + 1 + 2 + 3 + 4 + 1 + 2 + 3 + 4 + 1 + 2 + 3 + 4 +

Outro
G|---------3-------------------------------3-------------------3-4-|
D|-----3-5---5-3---6-6---6-5-----------3-5---5-3---6-6---6-5-6-----|
A|-3-6-----------6-----6-----6-5---3-6-----------6-----6-----------|
E|-------------------------------6---------------------------------|
   1 + 2 + 3 + 4 + 1 + 2 + 3 + 4 + 1 + 2 + 3 + 4 + 1 + 2 + 3 + 4 +

G|-5-5---5-8-5-8-10-11-11-11-11-10-8--------------3-----------------------|
D|-----8-----------------------------10-8-----3-5---5-3---6-6---6-5-------|
A|----------------------------------------3-6-----------6-----6-----6-5---|
E|----------------------------------------------------------------------6-|
   1 + 2 + 3 + 4 +  1  +  2  +  3  + 4  + 1 + 2 + 3 + 4 + 1 + 2 + 3 + 4 +

G|---------------------------------|
D|---------------------------------|
A|-3-------------1-3---------------|
E|---------------------------------|
   1 + 2 + 3 + 4 + 1 + 2 + 3 + 4 +
Tabbed by Dave Vucko

            
            
Suggest correction
Creating personal tab
Creating personal tab
You can edit any tab online and save it as your Personal.

You can edit, replace or remove any tab part or add personal notes – all changes will be seen only by you.

Personal tabs can be accessed anytime from any device, even offline.
Learn more »
comments
print report bad tab
guest
You may want to rate the tab now too:
select rating
Wanna post a correction for this tab? Suggest correction