Oops, an error
Loading. Please wait.

Brother tab

version 1
version 1

Whole song

6,130 views 6 this week
1 commentread comment
1 2 3 4 5
2 more votes to show rating
add to favorites
×
Save as Personal and add changes to this tab that will be seen only by you. Learn more ›
×
You can save this tab as Personal to edit and correct it or add notes. All changes will be seen only by you. Learn more »
launch autoscroll
font size
0
reset
how to read this tab
guitar tuner
edit
Autoscroll
slow
fast
+/-
esc
set tempo
stop
brother. by the organ

theres a few tabs for this song but none complete so heres another one.
this is my first tab so if you have any comments or corrections let me know at prs399@hotmail.com
(standard tuning)

this song starts with some bass notes.
i wont tab the exact # of times to play each note.

e------------------------------------------------------------|
B-------------------------------------5-----5----------------|
G-------------------------------------5-----5----------------|
D-------------------------------------------0----------------|
A--------3---------8-------5---------------------------------|
E---5--------------------------------------------------------|

 main guitar riff. (repeats over and over)

e----------------------------------------------------------------------------|
B-----------------------------------------5--5--5--5-----8-5-5-8-5-8---------|
G--------------------9--9-----9-----------5--5--5--5-------------------------|
D----7--7h9--9-9-9--------9-----9--------------------------------------------|
A----------------------------------------------------------------------------|
E----------------------------------------------------------------------------|

then the chorus:  we have got to take cover brother.

e-----------------------------------------------------------------|
B-----------------------------------------------------------------|
G----9---9----7---7---7-----7---7--7-----5----9---10---9----------|
D----7---7----7---7---7-----5---7--7-----7----7---8----7----------|
A-----------------------------------------------------------------|
E-----------------------------------------------------------------|

this  could be played by another guitar during the chorus. play up strokes.

e-----12----12---10--10--10---10---10--10---10--12---13---12------------------|
B-----10----10---10--10--10---8----10--10---8---10---10---10------------------|
G-----------------------------------------------------------------------------|


than for the part where she says this is the part of the song where i admit that i might be wrong..

e-----------------------------------------------|
B-----------------------------------------------|
G---10------7-------14--------------------------|     repeat’s a few times
D---10------7-------14-----10-------------------|
A---8-------5-------12-----10-------------------|
E----------------------------8------------------|

i believe it ends on this chord:

e---------------|
B---------------|
G---------------|
D--9------------|
A--10-----------|
E---8-----------|

that's it.
Suggest correction
Creating personal tab
Creating personal tab
You can edit any tab online and save it as your Personal.

You can edit, replace or remove any tab part or add personal notes – all changes will be seen only by you.

Personal tabs can be accessed anytime from any device, even offline.
Learn more »
Give kudos to tab author, rate the tab!
1 2 3 4 5
comments
print report bad tab
1 comment total.
0 reply
alain.dolores 10 Mar 24, 2017 04:32 AM

Very good! 👍

guest
Wanna post a correction for this tab? Suggest correction