Oops, an error
Loading. Please wait.

There Is Nothing I Can Do bass

version 1
version 1

Whole song

614 views 1 this week
no commentswrite comment
1 2 3 4 5
3 more votes to show rating
add to favorites
×
Save as Personal and add changes to this tab that will be seen only by you. Learn more ›
×
You can save this tab as Personal to edit and correct it or add notes. All changes will be seen only by you. Learn more »
launch autoscroll
font size
0
reset
guitar tuner
edit
Autoscroll
slow
fast
+/-
esc
set tempo
stop
BAND: The Organ
ALBUM: Grab That Gun
Me: Dámaris Ríos Núñez
My Band: MERLINA!
----------------------------------------------------------------------------
This Song Is dedicated to All My friends, My girlfriend and for The Organ, The Best 
Group of the Indie History... I'm From Perú And I play a few songs with my band... If there 
some mistakes please correct them!
d_drjamp@hotmail...
----------------------------------------------------------------------------

RIFF 1 (00:10)

G --------------------------------------------------|
D -7(x8)----5(x8)-----------------------------------|
A ---------------------------5(x8)----3(x3)-----0---|
E --------------------------------------------------|


RIFF 2 (01:10)

G -----------------------------------------------------------------------|
D -----------------------------------------------------------------------|
A -0(x2)--3(x2)--0(x2)--3(x2)--0----------------2(x2)-----2(x2)----3(x4)-|
E --------------------------------3(x6)---0(x2)-------0(x2)--------------|


01:25 ----------> RIFF 1

01:56 ----------> RIFF 2
Suggest correction
Creating personal tab
Creating personal tab
You can edit any tab online and save it as your Personal.

You can edit, replace or remove any tab part or add personal notes – all changes will be seen only by you.

Personal tabs can be accessed anytime from any device, even offline.
Learn more »
Give kudos to tab author, rate the tab!
1 2 3 4 5
comments
print report bad tab
guest
Wanna post a correction for this tab? Suggest correction