Oops, an error
Loading. Please wait.

Buddy chords

version 2
version 2

Whole song

181 views 3 this week
no commentswrite comment
1 2 3 4 5
2 more votes to show rating
add to favorites
×
Save as Personal and add changes to this tab that will be seen only by you. Learn more ›
×
You can save this tab as Personal to edit and correct it or add notes. All changes will be seen only by you. Learn more »
launch autoscroll
font size
0
reset
transpose
0
reset
display chords
guitar tuner
edit
Autoscroll
slow
fast
+/-
esc
set tempo
stop
Strumming Are these strumming patterns correct? Yes No
Verse 174 bpm
1
&
2
&
3
&
4
&
Listen
Chorus 174 bpm
1
&
2
&
3
&
4
&
5
&
6
&
7
&
8
&
9
&
10
&
11
&
12
&
13
&
14
&
15
&
16
&
Listen
Chorus end E - A 174 bpm
1
&
2
&
3
&
4
&
5
&
6
&
7
&
8
&
Listen
    The Orwells - Buddy
Terrible Human Beings - 2017
__________________________________________________________________
https://www.youtube.com/watch?v=pV6I3hVPUVU

    E     G#    C#m    
e|--7-----4-----4-----|
B|--9-----4-----5-----| Verse
G|--9-----5-----6-----|
D|--9-----6-----6-----|
A|--7-----6-----4-----|
E|--x-----4-----x-----|

    E     G#    A    C#m    B
e|--0-----4-----5-----4-----2-----|
B|--0-----4-----5-----5-----4-----| Chorus
G|--1-----5-----6-----6-----4-----|
D|--2-----6-----7-----6-----4-----|
A|--2-----6-----7-----4-----2-----|
E|--0-----4-----5-----x-----x-----|

Big thanks to UrbanHedgehog for laying the foundation.
__________________________________________________________________

[Intro]

G|-----------------------------------------------------------------|
D|-----------------------------------------------------------------|
A|-7-7-7-7-7-7-7-7-7-7-7-7-7-7-7-7---------------------------------|
E|---------------------------------4-4-4-4-4-4-4-4-4-4-4-4-4-4-4-4-|

G|-----------------------------------------------------------------|
D|-----------------------------------------------------------------|
A|-4-4-4-4-4-4-4-4-4-4-4-4-4-4-4-4---------------------------------|
E|---------------------------------4-4-4-4-4-4-4-4-4-4-4-4-4-4-4-4-|

G|-----------------------------------------------------------------|
D|-----------------------------------------------------------------|
A|-7-7-7-7-7-7-7-7-7-7-7-7-7-7-7-7---------------------------------|
E|---------------------------------4-4-4-4-4-4-4-4-4-4-4-4-4-4-4-4-|

G|-----------------------------------------------------------------|
D|-----------------------------------------------------------------|
A|-4-4-4-4-4-4-4-4-4-4-4-4-4-4-4-4---------------------------------|
E|---------------------------------4-4-4-4-4-4-4-4-4-4-4-4-4-4-4-4-|

[Verse 1]

E         G#
Forgiven, not forgotten
C#m           G#
This could be my last day
E           G#
And in case I don't see ya
C#m        G#
I'm comin' back in May

[Chorus 1]

E  G#  A   C#m     B
Movin' on, did my time
E  G#   A     C#m     B
Feelin' fine, feelin' fine

E       A
E       A

[Verse 2]

E             G#
Keep talking, walking pretty
C#m       G#
Remember what I say
E           G#
I'm gettin' hard in the van
C#m        G#
On our way to the bay

E       G#
I got a pint in my hand
C#m          G#
And words to make you stay
E        G#     
A pocket full of rubber
C#m         G#
And my hand on your face

[Chorus 2]

E  G#  A   C#m     B
Movin' on, did my time
E  G#   A     C#m     B
Feelin' fine, feelin' fine

E   G#  A      C#m    B
Goodbye Buddy
E   G#  A      C#m    B
Goodbye Buddy

end with E

            
            
Suggest correction
Creating personal tab
Creating personal tab
You can edit any tab online and save it as your Personal.

You can edit, replace or remove any tab part or add personal notes – all changes will be seen only by you.

Personal tabs can be accessed anytime from any device, even offline.
Learn more »
Give kudos to tab author, rate the tab!
1 2 3 4 5
comments
print report bad tab
guest
You may want to rate the tab now too:
select rating
Wanna post a correction for this tab? Suggest correction