Oops, an error
Loading. Please wait.

Double Feature chords

178 views 9 this week
no commentswrite comment
1 2 3 4 5
1 last vote to show rating
add to favorites
×
Save as Personal and add changes to this tab that will be seen only by you. Learn more ›
×
You can save this tab as Personal to edit and correct it or add notes. All changes will be seen only by you. Learn more »
launch autoscroll
font size
0
reset
transpose
0
reset
display chords
guitar tuner
edit
Autoscroll
slow
fast
+/-
esc
set tempo
stop
Strumming
There is no strumming pattern for this song yet. and get +5 IQ
Double Feature - The Orwells
Terrible Human Beings - 2017

 ascending bass riff in verses after F#
e|----------------|
B|----------------|
G|----------------|
D|----------------|
A|--------------0-|
E|--0---2---3-----|

included bass riff in Bridge, will likely update with lead guitar parts when I get around to it

____________________________________________________________________

[Intro]
B      D
B      D
B      D
B

[Verse 1]
             B                     F#
Never seen a house that looks so haunted
            B                D       
Never met a girl that's so unwanted
B                              F#
Should've been wise and saw it coming
            B               D
Now I'm in trouble and I'm running
B                            F#
Should've been a doctor or a lawyer
                B               D
Should've never listened to Destroyer
B                           F#
Could've been a madman or a teacher
                B             D          B
Could've been a bad man or a preacher

[Chorus 1]
F#              B                F#
Came from the wrong side of the tracks
                B                 F#
Showed up with scratches down his back
          B             F#
Got his Camaro painted black
             B        
And he ain't ever coming

   D                         B
e|----------------------------------------------------|
B|-7---7-7---10----7---7-----------------7-----7---7--|
G|------------------------(9)--9-----9----------------|
D|----------------------------------------------------|
A|----------------------------------------------------|
E|----------------------------------------------------|

   D                         B
e|----------------------------------------------------|
B|-7---7-7---10----7---7-----7------------------------|
G|----------------------------------------------------|
D|----------------------------------------------------|
A|----------------------------------------------------|
E|----------------------------------------------------|

B      D
B      D
B      D
B

[Verse 2]
          B                 F#
Bobby got locked up in the fall
          B             D
Polly's a child of the law
B                        F#
Bobby took her under the bleachers
               B                D
Polly went and called a double feature
B                              F#
Now he's got a man to wake him up
                B              D
Now he's in an alley throwing up
B                               F#
Now he's gone six months of the year
             B              D         B
Now he's got an irrational fear

[Chorus 2]
F#              B                F#
Came from the wrong side of the tracks
                B                 F#
Showed up with scratches down his back
          B             F#
Got his Camaro painted black
             B        
And he ain't ever coming

   D                         B
   baaa~~                    aaa~~   aacck~
e|----------------------------------------------------|
B|-7---7-7---10----7---7-----------------7-----7---7--|
G|------------------------(9)--9-----9----------------|
D|----------------------------------------------------|
A|----------------------------------------------------|
E|----------------------------------------------------|

   D                         B
   Baaaa~~                 aack
e|----------------------------------------------------|
B|-7---7-7---10----7---7-----7------------------------|
G|----------------------------------------------------|
D|----------------------------------------------------|
A|----------------------------------------------------|
E|----------------------------------------------------|

F#              B                F#
Came from the wrong side of the tracks
                B                 F#
Showed up with scratches down his back
          B             F#
Got his Camaro painted black
             B        
And he ain't ever coming

   D                         B
   baaa~~                    aaa~~   aacck~
e|----------------------------------------------------|
B|-7---7-7---10----7---7-----------------7-----7---7--|
G|------------------------(9)--9-----9----------------|
D|----------------------------------------------------|
A|----------------------------------------------------|
E|----------------------------------------------------|

   D                         B
   Baaaa~~                 aack
e|----------------------------------------------------|
B|-7---7-7---10----7---7-----7------------------------|
G|----------------------------------------------------|
D|----------------------------------------------------|
A|----------------------------------------------------|
E|----------------------------------------------------|

[Bridge]
   D       F#
   B
   D       F#
   B

   D                      F#
G|-----4---------4--------------------------------------|
D|-0---------0-------0---4-----4---4---0---4---5---7----|
A|------------------------------------------------------|
E|------------------------------------------------------|
   B
G|-4---4---4---4---4---4---4---0h2-4---4---4---4----------|
D|-------------------------------------------------7---4--|
A|--------------------------------------------------------|
E|--------------------------------------------------------|
   D                      F#
G|-----4---------4--------------------------------------|
D|-0---------0-------0---4-----4---4---0---4---5---7----|
A|------------------------------------------------------|
E|------------------------------------------------------|
   B
G|-4---4---4---4---4---4---4---0h2-4---4---4---4----------|
D|-------------------------------------------------7---4--|
A|--------------------------------------------------------|
E|--------------------------------------------------------|

   D       F#
   B
   D       F#
   B
   D       F#
   B
   D       F#
   B
   D       F#
   B
   D       F#
   B
   
   D       F#
   B
   D       F#
   B
  
   D       F#
   B
   D       F#
   B
   D       F#
   B
   D       F#
   B
   D       F#
   B
   D       F#
   B
   D       F#
   B

[Outro]
   D       F#
   B
   D       F#
   B
   D       F#
   B
   D       F#
   B

    D                     F#
  I really wanna listen, a real long time
    B
  I really wanna listen and feel sometime
   D                      F#
  One day I'll listen and feel just fine
   B
  ??? ? ?? ? ? ?  ? ???? ? ? ?
                 D               F#
  Now he's got a man to wake him up
                 B
  Now he's in an alley throwing up
                 D                 F# 
  Now he's gone six months of the year
                  B
  Now he's got an irrational fear

   D       F#
   B
   D       F#
   B
   D       F#
   B
   D       F#
   B
Suggest correction
Creating personal tab
Creating personal tab
You can edit any tab online and save it as your Personal.

You can edit, replace or remove any tab part or add personal notes – all changes will be seen only by you.

Personal tabs can be accessed anytime from any device, even offline.
Learn more »
Give kudos to tab author, rate the tab!
1 2 3 4 5
comments
print report bad tab
guest
You may want to rate the tab now too:
select rating
Wanna post a correction for this tab? Suggest correction