Oops, an error
Loading. Please wait.

Open Your Eyes Tab

10 views 10 this week
no commentswrite comment
1 2 3 4 5
3 more votes to show rating
add to favorites
launch autoscroll
font size
0
reset
how to read this tab
guitar tuner
Autoscroll
slow
fast
+/-
esc
set tempo
stop
Help us to improve Ultimate-Guitar.com Take our survey!
×
Author
Difficulty
intermediate
BPM: Around 150-160

[Intro] x2

e|---------------------------------------------------------------------------|
B|---------------------------------------------------------------------------|
G|-4--------------2----------------------------------------------------------|
D|-4-(x16)-5------2-(x8)-----------------------------------------------------|
A|-2-------5-(x8)-0----------------------------------------------------------|
E|---------3-----------------------------------------------------------------|

[Verse] x4

e|---------------------------------------------------------------------------|
B|---------------------------------------------------------------------------|
G|-4--------------2----------------------------------------------------------|
D|-4-(x16)-5------2-(x8)-----------------------------------------------------|
A|-2-------5-(x8)-0----------------------------------------------------------|
E|---------3-----------------------------------------------------------------|

[Chorus] x4

e|---------------------------------------------------------------------------|
B|---------------------------------------------------------------------------|
G|-7-------------------------------------------------------------------------|
D|-7-(x16)-5------7----------------------------------------------------------|
A|-5-------5-(x8)-7-(x8)-----------------------------------------------------|
E|---------3------5----------------------------------------------------------|

[Bridge] x1
Note: Let the last two chords ring for 4 beats.

e|---------------------------------------------------------------------------|
B|---------------------------------------------------------------------------|
G|---------------------------------------------------------------------------|
D|-5-------7-------5-------7-------5-----------------------------------------|
A|-5-(x8)--7-(x8)--5-(x8)--7-(x4)--5-(x4)------------------------------------|
E|-3-------5-------3-------5-------3-----------------------------------------|

[Verse] x4

e|---------------------------------------------------------------------------|
B|---------------------------------------------------------------------------|
G|-4----------------2--------------------------------------------------------|
D|-4-(x16)--5-------2-(x8)---------------------------------------------------|
A|-2--------5-(x8)--0--------------------------------------------------------|
E|----------3----------------------------------------------------------------|

[Chorus] x4

e|---------------------------------------------------------------------------|
B|---------------------------------------------------------------------------|
G|-7-------------------------------------------------------------------------|
D|-7-(x16)--5-------7--------------------------------------------------------|
A|-5--------5-(x8)--7-(x8)---------------------------------------------------|
E|----------3-------5--------------------------------------------------------|

[Outro]

e|---------------|---------------|---------------|--------------------|------|
B|-----3-----3---|-----5-----5---|-----3-----3---|-----5--------3-----|------|
G|---4---4-----4-|---6---6-----6-|---4---4-----4-|---6---6----4---4---|------|
D|-5-------5-----|-7-------7-----|-5-------5-----|-7--------5-------5-|------|
A|---------------|---------------|---------------|--------------------|------|
E|---------------|---------------|---------------|--------------------|------|

e|---------------------------------------------------------------------------|
B|---------------------------------------------------------------------------|
G|-4-------------------------------------------------------------------------|
D|-4-(Let it ring)-----------------------------------------------------------|
A|-2-------------------------------------------------------------------------|
E|---------------------------------------------------------------------------| 
Suggest correction
Give kudos to tab author, rate the tab!
1 2 3 4 5
comments
print report bad tab
guest
You may want to rate the tab now too:
select rating
Wanna post a correction for this tab? Suggest correction