Oops, an error
Loading. Please wait.

Vacation tab

376 views 6 this week
3 commentsread comments
1 2 3 4 5
x 3
add to favorites
×
Save as Personal and add changes to this tab that will be seen only by you. Learn more ›
×
You can save this tab as Personal to edit and correct it or add notes. All changes will be seen only by you. Learn more »
launch autoscroll
font size
0
reset
how to read this tab
guitar tuner
edit
Autoscroll
slow
fast
+/-
esc
set tempo
stop
About this tab version
Comment First tab for this one. Was this info helpful? Yes No
  The Orwells - Vacation
Terrible Human Beings - 2017
______________________________________________________________________________

watch em play live, its hard to see but they do a little walk down from G to F# to E in the chorus 
while still playing the chord
https://www.youtube.com/watch?v=QSZGAAGOSjg


    B     E     F#    A     D     G     G
e|--7-----0-----2-----5-----5-----3-----8---|
B|--7-----0-----2-----5-----7-----3-----10--|
G|--8-----1-----3-----6-----7-----4-----10--|
D|--9-----2-----4-----7-----7-----5-----10--|
A|--9-----2-----4-----7-----5-----5-----8---|
E|--7-----0-----2-----5-----x-----3-----x---|

______________________________________________________________________________

[Intro]

e|-----------------------------------|----------------------------------------|
B|-----------------------------------|----------------------------------------|
G|-----------------------------------|----------------------------------------|
D|-9---9-----9-----12-----9-----12---|-14--16\14------------------------------|
A|-----------------------------------|----------------------------------------|
E|-----------------------------------|----------------------------------------|

e|-----------------------------------|----------------------------------------|
B|-----------------------------------|----------------------------------------|
G|-14---14---------------------------|--16---16-----14------------------------|
D|-------------16-----14----16~------|--------------------16-----14-----12----|
A|-----------------------------------|----------------------------------------|
E|-----------------------------------|----------------------------------------|

   B                                  E
e|-----------------------------------|----------------------------------------|
B|-----------------------------------|----------------------------------------|
G|-----------------------------------|----------------------------------------|
D|-9---9-----9-----12-----9-----12---|-14--16\14------------------------------|
A|-----------------------------------|----------------------------------------|
E|-----------------------------------|----------------------------------------|

   F#                                 G
e|-----------------------------------|----------------------------------------|
B|-----------------------------------|----------------------------------------|
G|-14---14---------------------------|--16---16-----14------------------------|
D|-------------16-----14----16~------|--------------------16-----14-----12----|
A|-----------------------------------|----------------------------------------|
E|-----------------------------------|----------------------------------------|

[Verse 1]

B                          E
 The failed promises that took you far

e|-----2-------2--|-----0-------0--|
B|-----4-------4--|-----0-------0--|
G|-----4-------4--|-----1-------1--|
D|-----4-------4--|-----2-------2--|
A|-----2-------2--|-----2-------2--|
E|-----x-------x--|-----0-------0--|

           F#                     G
Now you got, awaiting enemies in your backyard

e|-----2-------2--|-----3-------3--|
B|-----2-------2--|-----3-------3--|
G|-----3-------3--|-----4-------4--|
D|-----4-------4--|-----5-------5--|
A|-----4-------4--|-----5-------5--|
E|-----2-------2--|-----3-------3--|

B                               E
 Stepping from face to face to make your mark, runnin' up

e|-----2-------2--|-----0-------0--|
B|-----4-------4--|-----0-------0--|
G|-----4-------4--|-----1-------1--|
D|-----4-------4--|-----2-------2--|
A|-----2-------2--|-----2-------2--|
E|-----x-------x--|-----0-------0--|

F#                        G
  A human staircase to a guy in the star

e|-----2-------2--|-----3-------3--|
B|-----2-------2--|-----3-------3--|
G|-----3-------3--|-----4-------4--|
D|-----4-------4--|-----5-------5--|
A|-----4-------4--|-----5-------5--|
E|-----2-------2--|-----3-------3--|

   G
e|-3---3---3---3--|-3---3---3---3--|
B|-3---3---3---3--|-3---3---3---3--|
G|-4---4---4---4--|-4---4---4---4--|
D|-5---5---5---5--|-5---5---5---5--|
A|-5---5---5---5--|-5---5---5---5--|
E|-3---3---3---3--|-3---3---3---3--|

[Chorus 1]

D              G
Turn off your television

e|-5---5-5---5-5-----5-5---5-5-5-5|-3---3-3---3-3-----3-3---3-3-3-3|
B|-7---7-7---7-7-----7-7---7-7-7-7|-3---3-3---3-3-----3-3---3-3-3-3|
G|-7---7-7---7-7-----7-7---7-7-7-7|-4---4-4---4-4-----3-4---4-4-4-4|
D|-7---7-7---7-7-----7-7---7-7-7-7|-5---5-5---3-5-----3-5---5-5-5-5|
A|-5---5-5---5-5-----5-5---5-5-5-5|-5---5-5---3-5-----3-5---5-5-5-5|
E|--------------------------------|-3---3-3---3-3-----3-3---3-3-2-2|

E                A
Your permission kills civilians

e|-0---0-0---0-0-----0-0---0-0-0-0|-5---5-5---5-5-----5-5---5-5-5-5|
B|-0---0-0---0-0-----0-0---0-0-0-0|-5---5-5---5-5-----5-5---5-5-5-5|
G|-1---1-1---1-1-----1-1---1-1-1-1|-6---6-6---6-6-----6-6---6-6-6-6|
D|-2---2-2---2-2-----2-2---2-2-2-2|-7---7-7---7-7-----7-7---7-7-7-7|
A|-2---2-2---2-2-----2-2---2-2-2-2|-7---7-7---7-7-----7-7---7-7-7-7|
E|-0---0-0---0-0-----0-0---0-0-0-0|-5---5-5---5-5-----5-5---5-5-5-5|

D           G
No one can feel your vision

e|-5---5-5---5-5-----5-5---5-5-5-5|-3---3-3---3-3-----3-3---3-3-3-3|
B|-7---7-7---7-7-----7-7---7-7-7-7|-3---3-3---3-3-----3-3---3-3-3-3|
G|-7---7-7---7-7-----7-7---7-7-7-7|-4---4-4---4-4-----3-4---4-4-4-4|
D|-7---7-7---7-7-----7-7---7-7-7-7|-5---5-5---3-5-----3-5---5-5-5-5|
A|-5---5-5---5-5-----5-5---5-5-5-5|-5---5-5---3-5-----3-5---5-5-5-5|
E|--------------------------------|-3---3-3---3-3-----3-3---3-3-2-2|

        E            A
They're on vacation, masturbating

e|-0---0-0---0-0-----0-0---0-0-0-0|-5---5-5---5-5-----5-5---5-5-5-5|
B|-0---0-0---0-0-----0-0---0-0-0-0|-5---5-5---5-5-----5-5---5-5-5-5|
G|-1---1-1---1-1-----1-1---1-1-1-1|-6---6-6---6-6-----6-6---6-6-6-6|
D|-2---2-2---2-2-----2-2---2-2-2-2|-7---7-7---7-7-----7-7---7-7-7-7|
A|-2---2-2---2-2-----2-2---2-2-2-2|-7---7-7---7-7-----7-7---7-7-7-7|
E|-0---0-0---0-0-----0-0---0-0-0-0|-5---5-5---5-5-----5-5---5-5-5-5|

[Main Riff]

e|-----------------------------------|----------------------------------------|
B|-----------------------------------|----------------------------------------|
G|-----------------------------------|----------------------------------------|
D|-9---9-----9-----12-----9-----12---|-14--16\14------------------------------|
A|-----------------------------------|----------------------------------------|
E|-----------------------------------|----------------------------------------|

e|-----------------------------------|----------------------------------------|
B|-----------------------------------|----------------------------------------|
G|-14---14---------------------------|--16---16-----14------------------------|
D|-------------16-----14----16~------|--------------------16-----14-----12----|
A|-----------------------------------|----------------------------------------|
E|-----------------------------------|----------------------------------------|

   B                                  E
e|-----------------------------------|----------------------------------------|
B|-----------------------------------|----------------------------------------|
G|-----------------------------------|----------------------------------------|
D|-9---9-----9-----12-----9-----12---|-14--16\14------------------------------|
A|-----------------------------------|----------------------------------------|
E|-----------------------------------|----------------------------------------|

   A                                  D
e|-----------------------------------|----------------------------------------|
B|-----------------------------------|----------------------------------------|
G|-14---14---------------------------|--16---16-----14------------------------|
D|-------------16-----14----16~------|--------------------16-----14-----12----|
A|-----------------------------------|----------------------------------------|
E|-----------------------------------|----------------------------------------|

[Verse 2]

B                            E
 Could be a better a way to right these wrongs

e|-----2-------2--|-----0-------0--|
B|-----4-------4--|-----0-------0--|
G|-----4-------4--|-----1-------1--|
D|-----4-------4--|-----2-------2--|
A|-----2-------2--|-----2-------2--|
E|-----x-------x--|-----0-------0--|

F#                         G
 Than drinking heavily and playing songs

e|-----2-------2--|-----3-------3--|
B|-----2-------2--|-----3-------3--|
G|-----3-------3--|-----4-------4--|
D|-----4-------4--|-----5-------5--|
A|-----4-------4--|-----5-------5--|
E|-----2-------2--|-----3-------3--|

B                         E
 These possibilities that plague your mind

e|-----2-------2--|-----0-------0--|
B|-----4-------4--|-----0-------0--|
G|-----4-------4--|-----1-------1--|
D|-----4-------4--|-----2-------2--|
A|-----2-------2--|-----2-------2--|
E|-----x-------x--|-----0-------0--|

F#                            G
Some better kept, some better left behind

e|-----2-------2--|-----3-------3--|
B|-----2-------2--|-----3-------3--|
G|-----3-------3--|-----4-------4--|
D|-----4-------4--|-----5-------5--|
A|-----4-------4--|-----5-------5--|
E|-----2-------2--|-----3-------3--|

   G
e|-3---3---3---3---3---3---3---3/-|-10--10--10--10--10--10--10--10-|
B|-3---3---3---3---3---3---3---3/-|-12--12--12--12--12--12--12--12-|
G|-4---4---4---4---4---4---4---4/-|-12--12--12--12--12--12--12--12-|
D|-5---5---5---5---5---5---5---5/-|-12--12--12--12--12--12--12--12-|
A|-5---5---5---5---5---5---5---5/-|-10--10--10--10--10--10--10--10-|
E|-3---3---3---3---3---3---3---3/-|-x---x---x---x---x---x---x---x--|

[Chorus 2]

D              G
Turn off your television

e|-5---5-5---5-5-----5-5---5-5-5-5|-3---3-3---3-3-----3-3---3-3-3-3|
B|-7---7-7---7-7-----7-7---7-7-7-7|-3---3-3---3-3-----3-3---3-3-3-3|
G|-7---7-7---7-7-----7-7---7-7-7-7|-4---4-4---4-4-----3-4---4-4-4-4|
D|-7---7-7---7-7-----7-7---7-7-7-7|-5---5-5---3-5-----3-5---5-5-5-5|
A|-5---5-5---5-5-----5-5---5-5-5-5|-5---5-5---3-5-----3-5---5-5-5-5|
E|--------------------------------|-3---3-3---3-3-----3-3---3-3-2-2|

E                A
Your permission kills civilians

e|-0---0-0---0-0-----0-0---0-0-0-0|-5---5-5---5-5-----5-5---5-5-5-5|
B|-0---0-0---0-0-----0-0---0-0-0-0|-5---5-5---5-5-----5-5---5-5-5-5|
G|-1---1-1---1-1-----1-1---1-1-1-1|-6---6-6---6-6-----6-6---6-6-6-6|
D|-2---2-2---2-2-----2-2---2-2-2-2|-7---7-7---7-7-----7-7---7-7-7-7|
A|-2---2-2---2-2-----2-2---2-2-2-2|-7---7-7---7-7-----7-7---7-7-7-7|
E|-0---0-0---0-0-----0-0---0-0-0-0|-5---5-5---5-5-----5-5---5-5-5-5|

D           G
No one can feel your vision

e|-5---5-5---5-5-----5-5---5-5-5-5|-3---3-3---3-3-----3-3---3-3-3-3|
B|-7---7-7---7-7-----7-7---7-7-7-7|-3---3-3---3-3-----3-3---3-3-3-3|
G|-7---7-7---7-7-----7-7---7-7-7-7|-4---4-4---4-4-----3-4---4-4-4-4|
D|-7---7-7---7-7-----7-7---7-7-7-7|-5---5-5---3-5-----3-5---5-5-5-5|
A|-5---5-5---5-5-----5-5---5-5-5-5|-5---5-5---3-5-----3-5---5-5-5-5|
E|--------------------------------|-3---3-3---3-3-----3-3---3-3-2-2|

        E            A
They're on vacation, masturbating

e|-0---0-0---0-0-----0-0---0-0-0-0|-5---5-5---5-5-----5-5---5-5-5-5|
B|-0---0-0---0-0-----0-0---0-0-0-0|-5---5-5---5-5-----5-5---5-5-5-5|
G|-1---1-1---1-1-----1-1---1-1-1-1|-6---6-6---6-6-----6-6---6-6-6-6|
D|-2---2-2---2-2-----2-2---2-2-2-2|-7---7-7---7-7-----7-7---7-7-7-7|
A|-2---2-2---2-2-----2-2---2-2-2-2|-7---7-7---7-7-----7-7---7-7-7-7|
E|-0---0-0---0-0-----0-0---0-0-0-0|-5---5-5---5-5-----5-5---5-5-5-5|

D             G
Call off your reservations

e|-5---5-5---5-5-----5-5---5-5-5-5|-3---3-3---3-3-----3-3---3-3-3-3|
B|-7---7-7---7-7-----7-7---7-7-7-7|-3---3-3---3-3-----3-3---3-3-3-3|
G|-7---7-7---7-7-----7-7---7-7-7-7|-4---4-4---4-4-----3-4---4-4-4-4|
D|-7---7-7---7-7-----7-7---7-7-7-7|-5---5-5---3-5-----3-5---5-5-5-5|
A|-5---5-5---5-5-----5-5---5-5-5-5|-5---5-5---3-5-----3-5---5-5-5-5|
E|--------------------------------|-3---3-3---3-3-----3-3---3-3-2-2|

E                   A
Sell your soul for useless children

e|-0---0-0---0-0-----0-0---0-0-0-0|-5---5-5---5-5-----5-5---5-5-5-5|
B|-0---0-0---0-0-----0-0---0-0-0-0|-5---5-5---5-5-----5-5---5-5-5-5|
G|-1---1-1---1-1-----1-1---1-1-1-1|-6---6-6---6-6-----6-6---6-6-6-6|
D|-2---2-2---2-2-----2-2---2-2-2-2|-7---7-7---7-7-----7-7---7-7-7-7|
A|-2---2-2---2-2-----2-2---2-2-2-2|-7---7-7---7-7-----7-7---7-7-7-7|
E|-0---0-0---0-0-----0-0---0-0-0-0|-5---5-5---5-5-----5-5---5-5-5-5|

D            G
 Arrange the information

e|-5---5-5---5-5-----5-5---5-5-5-5|-3---3-3---3-3-----3-3---3-3-3-3|
B|-7---7-7---7-7-----7-7---7-7-7-7|-3---3-3---3-3-----3-3---3-3-3-3|
G|-7---7-7---7-7-----7-7---7-7-7-7|-4---4-4---4-4-----3-4---4-4-4-4|
D|-7---7-7---7-7-----7-7---7-7-7-7|-5---5-5---3-5-----3-5---5-5-5-5|
A|-5---5-5---5-5-----5-5---5-5-5-5|-5---5-5---3-5-----3-5---5-5-5-5|
E|--------------------------------|-3---3-3---3-3-----3-3---3-3-2-2|

E            A
Decimate the population

e|-0---0-0---0-0-----0-0---0-0-0-0|-5---5-5---5-5-----5-5---5-5-5-5|
B|-0---0-0---0-0-----0-0---0-0-0-0|-5---5-5---5-5-----5-5---5-5-5-5|
G|-1---1-1---1-1-----1-1---1-1-1-1|-6---6-6---6-6-----6-6---6-6-6-6|
D|-2---2-2---2-2-----2-2---2-2-2-2|-7---7-7---7-7-----7-7---7-7-7-7|
A|-2---2-2---2-2-----2-2---2-2-2-2|-7---7-7---7-7-----7-7---7-7-7-7|
E|-0---0-0---0-0-----0-0---0-0-0-0|-5---5-5---5-5-----5-5---5-5-5-5|

[Outro]

e|-----------------------------------|----------------------------------------|
B|-----------------------------------|----------------------------------------|
G|-----------------------------------|----------------------------------------|
D|-9---9-----9-----12-----9-----12---|-14--16\14------------------------------|
A|-----------------------------------|----------------------------------------|
E|-----------------------------------|----------------------------------------|

e|-----------------------------------|----------------------------------------|
B|-----------------------------------|----------------------------------------|
G|-14---14---------------------------|--16---16-----14------------------------|
D|-------------16-----14----16~------|--------------------16------------------|
A|-----------------------------------|----------------------------------------|
E|-----------------------------------|----------------------------------------|
________________________________________________________________________________

Lyrics

[v1]
The failed promises that took you far
Now you got, awaiting enemies in your backyard
Stepping from face to face to make your mark, runnin' up   
A human staircase to a guy in the star

[c1]
Turn off your television
Your permission kills civilians                          
No one can feel your vision
They're on vacation, masturbating

[v2]
Could be a better a way to right these wrongs
Than drinking heavily and playing songs
These possibilities that plague your mind                  
Some better kept, some better left behind

[c2]
Turn off your television
Your permission kills civilians
No one can feel your vision
They're on vacation, masturbating
                            
Call off your reservations
Sell your soul for useless children
Arrange the information
Decimate the population

************************************

| x   Dead note
| /   Slide up
| \   Slide down
| ~   Hold note (normally means vibrato I know)

************************************
Suggest correction
Creating personal tab
Creating personal tab
You can edit any tab online and save it as your Personal.

You can edit, replace or remove any tab part or add personal notes – all changes will be seen only by you.

Personal tabs can be accessed anytime from any device, even offline.
Learn more »
Give kudos to tab author, rate the tab!
1 2 3 4 5
comments
print report bad tab
3 comments total.
0 reply
harleythrhippo 10 Jun 29, 2017 02:59 PM

Would you be willing to figure out the bass tab for this song?

guest
You may want to rate the tab now too:
select rating
Wanna post a correction for this tab? Suggest correction