Oops, an error
Loading. Please wait.

All The Love In The World Tab

version 1
version 1

Whole song

Interactive

21,856 views 24 this week
1 commentread comment
1 2 3 4 5
excellent!
x 5
add to favorites
launch autoscroll
font size
0
reset
how to read this tab
guitar tuner
Tab Pro tools
  • play this tab
  • loop segment
  • change instrument
  • show fretboard
  • metronome
×
Best way to learn
"All The Love In The World"
Autoscroll
slow
fast
+/-
esc
set tempo
stop
Contributor
uh!!! this tab is cool!!!!

all the love in the world by the outfield

intro:

e-----------------------------------|
B----------7---9--10---9---7---7--9-|
G-----9-----------------------------|
D---9---9----9---9---9---9---9------| (x4)
A-----------------------------------|
E-----------------------------------|

Verse: PM

e-----------------------------------|
B----------7---9--10---9---7---7--9-|
G-----9-----------------------------|
D---9---9----9---9---9---9---9------| (x2)
A-----------------------------------|
E-----------------------------------|

intro:

e-----------------------------------|
B----------7---9--10---9---7---7--9-|
G-----9-----------------------------|
D---9---9----9---9---9---9---9------| (x2)
A-----------------------------------|
E-----------------------------------|


chorus:

B5 A5 (x3)

verse

chorus

bridge:

e---------------------------------------------------------|
B---------5-------------5-------------5-------------5-----|
G-------6---6---------6---6---------4---4---------4---4---| (x2)
D-----6-------6-----6-------6-----4-------4-----4-------4-|
A---4-------------4-------------2-------------2-----------|
E---------------------------------------------------------|

solo:

e---------------------------------------------------9-11-12-14-14b16-|
B-------------------------------------------9-10-12------------------|
G---11b13----------------------------8-9-11--------------------------|
D-----------11b13r11--9-9/14---9-11----------------------------------|
A--------------------------------------------------------------------|
E--------------------------------------------------------------------|

e----------------------------------------0---------------------------------|
B-------------------5----------------------2----2-5-7-5-2------5-----------|
G---9--9-9-8------6---6----6-6--4------2-----2--2-4-6-4-2------------------|
D---9--9-9-8----6-------6--6-6--4----2-----------------------6---6b8-6b8r6-|
A---7--7-7-6--4------------4-4--2--0-----------------------4---------------|
E--------------------------------------------------------------------------|

e--------(12)-|
B---(12)------|
G-------------|
D-------------|
A-------------|
E-------------|

verse

chorus (x7)
comments
print report bad tab
1 comment total.
0 reply
alva99jr wrote on February 12 2016, 10:29 pm

"All The Love In The World"

The Outfield - 1986

_________________________________________________
Developed by: Khorov

email: saii_khorovsky@hotmail.com

Cover by Khorov: http://www.youtube.com/watch?v=ZaEomJbID14
_________________________________________________

INTRO

................x4...................
|-----------------------------------|
|-------7---9---10---9---7---9------|
|---9-------------------------------|
|-9---9---9---9----9---9---9---9----|
|-----------------------------------|
|-----------------------------------|

=============================================VERSE======================================================================
===================

I can't believe the things that happen to me I guess that I

..........................................Palm.Mute..........................................
|----------------------------------------------|----------------------------------------------|
|----------7-----9-----10-----9-----7-----9----|----------7-----9-----10-----9-----7-----9----|
|----9-----------------------------------------|----9-----------------------------------------|
|-9-----9-----9-----9------9-----9-----9-----9-|-9-----9-----9-----9------9-----9-----9-----9-|
|----------------------------------------------|----------------------------------------------|
|----------------------------------------------|----------------------------------------------|

should have seen a long, long time ago

..........................................Palm.Mute..........................................
|----------------------------------------------|----------------------------------------------|
|----------7-----9-----10-----9-----7-----9----|----------7-----9-----10-----9-----7-----9----|
|----9-----------------------------------------|----9-----------------------------------------|
|-9-----9-----9-----9------9-----9-----9-----9-|-9-----9-----9-----9------9-----9-----9-----9-|
|----------------------------------------------|----------------------------------------------|
|----------------------------------------------|----------------------------------------------|

Letters you write don't help me get through the night So I'll just

|----------------------------------------------|----------------------------------------------|
|----------7-----9-----10-----9-----7-----9----|----------7-----9-----10-----9-----7-----9----|
|----9-----------------------------------------|----9-----------------------------------------|
|-9-----9-----9-----9------9-----9-----9-----9-|-9-----9-----9-----9------9-----9-----9-----9-|
|----------------------------------------------|----------------------------------------------|
|----------------------------------------------|----------------------------------------------|

turn out the light and sleep here all alone

|----------------------------------------------|----------------------------------------------|
|----------7-----9-----10-----9-----7-----9----|----------7-----9-----10-----9-----7-----9----|
|----9-----------------------------------------|----9-----------------------------------------|
|-9-----9-----9-----9------9-----9-----9-----9-|-9-----9-----9-----9------9-----9-----9-------|
|----------------------------------------------|----------------------------------------------|
|----------------------------------------------|----------------------------------------------|

==========================================CHORUS========================================================================
===================

All the love, all the love in the world (All the love), I'll be sending you girl (All the love) All the love in the world

|------------------------------------------------------------------------------------------------------------|
|------------------------------------.............Guitar 1.............--------------------------------------|
|------------------------------------------------------------------------------------------------------------|
|-9--------------------7--------------------9-------------------7--------------------9-------------------7---|
|-9--------------------7--------------------9-------------------7--------------------9-------------------7---|
|-7--------------------5--------------------7-------------------5--------------------7-------------------5---|

.........Guitar 2.........

|-11-11-11-12-11-------11-11-11-12-11-------11-11-11-12-11------11-11-11-12-11-------11-11-11-12-11------11--|
|-12-12-12-12-12-------12-12-12-12-12-12----12-12-12-12-12------12-12-12-12-12-12----12-12-12-12-12------12--|
|-11--------------11---------------------11-11--------------11--------------------11-11-------------11---11--|
|------------------------------------------------------------------------------------------------------------|
|------------------------------------------------------------------------------------------------------------|
|-----------

I want to post or [tab]
guest
You may want to rate the tab now too:
select rating
Please do not post tabs as comments. Select "correction" instead!